Tag: sorry

Sorry Not Sorry chords by Demi Lovato

[Intro]
Bm
Payback is a bad bitch
And baby, I'm the baddest

[Verse 1]
Bm                            G
Now I'm out here looking like revenge
Em                              F#m
Feelin' like a 10, the best I ever been
Bm                               G
And yeah, I know how bad it must hurt
Em                                F#m
To see me like this, but it gets worse (wait a minute)
Bm                                 G
Now you're out here looking like regret
                      Em                            F#m
Ain't too proud to beg, second chance you'll never get
               Bm                  G                  Em
And yeah, I know how bad it must hurt to see me like this
             F#m
But it gets worse (wait a minute)

[Pre-Chorus]
Bm                   G
Now payback is a bad bitch
Em                 F#m
And baby, I'm the baddest
Bm                G
You fuckin' with a savage
Em                    F#m
Can't have this, can't have this (ah)
Bm          G                     Em             F#m
And it'd be nice of me to take it easy on ya, but nah

[Chorus]
Bm              G
Baby, I'm sorry (I'm not sorry)
Em               F#m
Baby, I'm sorry (I'm not sorry)
Bm                   G
Being so bad got me feelin' so good
Em                       F#m
Showing you up like I knew that I would
Bm                 G
Baby, I'm sorry (I'm not sorry)
Em                 F#m
Baby, I'm sorry (I'm not sorry)
 Bm                           G
Feeling inspired 'cause the tables have turned
Em                      F#m
Yeah, I'm on fire and I know that it burns

[Verse 2]
Bm                           G
Baby, fineness is the way to kill
Em                       F#m
Tell me how it feel, bet it's such a bitter pill
Bm                           G
And yeah, I know you thought you had bigger, better things
Em                          F#m
Bet right now this stings (wait a minute)
Bm                     G
'Cause the grass is greener under me
Em                        F#m
Bright as technicolor, I can tell that you can see
Bm                           G
And yeah, I know how bad it must hurt to see me like this
Em                  F#m
But it gets worse (wait a minute)

[Pre-Chorus]
Bm                   G
Now payback is a bad bitch
Em                 F#m
And baby, I'm the baddest
Bm                G
You fuckin' with a savage
Em                    F#m
Can't have this, can't have this (ah)
Bm          G                     Em             F#m
And it'd be nice of me to take it easy on ya, but nah

[Chorus]
Bm              G
Baby, I'm sorry (I'm not sorry)
Em               F#m
Baby, I'm sorry (I'm not sorry)
Bm                   G
Being so bad got me feelin' so good
Em                       F#m
Showing you up like I knew that I would
Bm                 G
Baby, I'm sorry (I'm not sorry)
Em                 F#m
Baby, I'm sorry (I'm not sorry)
 Bm                           G
Feeling inspired 'cause the tables have turned
Em                      F#m
Yeah, I'm on fire and I know that it burns

[Bridge]
Bm                   G
Talk that talk, baby
                   Em                 F#m
Better walk, better walk that walk, baby
Bm                     G
If you talk, if you talk that talk, baby
                     Em              F#m
Better walk, better walk that walk, baby
Oh yeah
Bm                   G
Talk that talk, baby
                   Em                 F#m
Better walk, better walk that walk, baby
Bm                     G
If you talk, if you talk that talk, baby
                     Em              F#m
Better walk, better walk that walk, baby

[Chorus]
Bm              G
Baby, I'm sorry (I'm not sorry)
Em               F#m
Baby, I'm sorry (I'm not sorry)
Bm                   G
Being so bad got me feelin' so good
Em                       F#m
Showing you up like I knew that I would
Bm                 G
Baby, I'm sorry (I'm not sorry)
Em                 F#m
Baby, I'm sorry (I'm not sorry)
 Bm                           G
Feeling inspired 'cause the tables have turned
Em                      F#m
Yeah, I'm on fire and I know that it burns

[Outro]
Bm              G
Payback is a bad bitch
Em                 F#m
And baby, I'm the baddest
Bm               G
I'm the baddest, I'm the baddest

Sorry chords by Halsey ver 3

[Intro]
G# Bbm C# Eb

[Verse 1]
     G#
I've missed your calls for months it seems
      Bbm
Don't realize how mean I can be
       C#
'Cause I can sometimes treat the people
Eb
That I love like jewelry
       G#
'Cause I can change my mind each day
  Bbm
I didn't mean to try you on
    C#
But I still know your birthday
         Eb
And your mother's favorite song

[Chorus]
       Bbm    
So I'm sorry to my unknown lover
C#                              G#
Sorry that I can't believe that anybody ever really
Eb
Starts to fall in love with me
Bbm
Sorry to my unknown lover
C#
Sorry I could be so blind
G#
Didn't mean to leave you
               Eb
And all of the things that we had behind
Bbm
Ooh
C#
Ooh
G# Eb
Ooh

[Verse 2]
  G#
I run away when things are good
    Bbm
And never really understood
    C#
The way you laid your eyes on me
   Eb
In ways that no one ever could
    G#
And so it seems I broke your heart
    Bbm
My ignorance has struck again
   C#
I failed to see it from the start
    Eb
And tore you open 'til the end

[Chorus]
        Bbm    
And I'm sorry to my unknown lover
C#                              G#
Sorry that I can't believe that anybody ever really
Eb
Starts to fall in love with me
Bbm
Sorry to my unknown lover
C#
Sorry I could be so blind
G#
Didn't mean to leave you
               Eb
And all of the things that we had behind

[Bridge]
Bbm
And someone will love you
C#
Someone will love you
G#
Someone will love you
Eb
But someone isn't me
Bbm
Someone will love you
C#
Someone will love you
G#
Someone will love you
Eb
But someone isn't me

[Chorus]
Bbm    
Sorry to my unknown lover
C#                              G#
Sorry that I can't believe that anybody ever really
Eb
Starts to fall in love with me
Bbm
Sorry to my unknown lover
C#
Sorry I could be so blind
G#
Didn't mean to leave you
               Eb
And all of the things that we had behind

[Bridge]
Bbm
And someone will love you
C#
Someone will love you
G#
Someone will love you
Eb
But someone isn't me
Bbm
Someone will love you
C#
Someone will love you
G#
Someone will love you
Eb
But someone isn't me

Sorry chords by Halsey ver 2

Capo 1st fret

[Intro]
C Am Em G D

[Verse]
C                G
I've missed your calls for months it seems
G     Em      C        Em      D
Don't realize how mean I can be
D     Em                               G                D
Cause I can sometimes treat the people that I love like jewelry
C
Cause I can change my mind each day
D           Am   Em      Am
I didn't mean to try you on
Em
But I still know your birthday
D
And your mother's favorite song

[Chorus]
D      Am
So I'm sorry to my unknown lover
C            Em    D       Em
Sorry that I can't believe that anybody ever really
G
Starts to fall in love with me
Am
Sorry to my unknown lover
C                   D
Sorry I could be so blind
Em
Didn't mean to leave you
Em         G
And all of the things that we had behind
Am C
Ooh
C G Em
Ooh
Em G
Ooh

[Verse 2]
Em         C
I run away when things are good
Em        Am               C
And never really understood
G                     Em
The way you laid your eyes on me
G                   D    Bm
In ways that no one ever could
C
And so it seems I broke your heart
D                          Am
My ignorance has struck again
Em
I failed to see it from the start
G                 Bm
And tore you open 'til the end

[Chorus]
Bm      Am
And I'm sorry to my unknown lover
C            Em    D       Em
Sorry that I can't believe that anybody ever really
G
Starts to fall in love with me
Am
Sorry to my unknown lover
C                   D
Sorry I could be so blind
Em
Didn't mean to leave you
           G
And all of the things that we had behind

[Bridge]
Am          C
And someone will love you
C      Am    D        Em
Someone will love you
Em                    G
Someone will love you
G
But someone isn't me
Am                    C
Someone will love you
C            D        Em
Someone will love you
Em                    D
Someone will love you
D
But someone isn't me

[Chorus]
Am
Sorry to my unknown lover
C            Em    D       Em
Sorry that I can't believe that anybody ever really
G
Starts to fall in love with me
Am          D       C
Sorry to my unknown lover
C                   D
Sorry I could be so blind
Em
Didn't mean to leave you
Em         G                             Am
And all of the things that we had behind

[Outro]
Am               G        C
And someone will love you
C   Am       D        Em
Someone will love you
Em                    G
Someone will love you
G                     Am
But someone isn't me
Am      C        Am       C
And someone will love you
C   Am       G
Someone will love you
Em
Someone will love you
D
But someone isn't me

Sorry chords – Justin Bieber V2

 Without Capo

Intro:
 G# Cm A# G# Cm A# 

[Verse 1]
 G# Cm A# 
You gotta go and get angry at all of my honesty
 G# Cm A# 
You know I try but I don't do too well with apologies
   G# Cm A# 
I hope I don't run out of time, could someone call a referee?
              G# Cm A# 
Cause I just need one more shot at forgiveness
 G# Cm A# 
I know you know that I made those mistakes maybe once or twice
 G# Cm A# 
By once or twice I mean maybe a couple a hundred times
    G# Cm A# 
So let me, oh let me redeem, oh redeem, oh myself tonight
              G# Cm A# 
Cause I just need one more shot at second chances

[Pre-Chorus]
       G# Cm A# 
Yeah, is it too late now to say sorry?
           G# Cm A# 
Cause I'm missing more than just your body
 G# Cm A# 
Is it too late now to say sorry?
        Fm 
Yeah I know that I let you down
    G# A# 
Is it too late to say I'm sorry now?

[Chorus]
 G# Cm A# G# Cm 
      I'm sorry, yeah
 A# G# Cm 
Sorry, yeah
 A# 
Sorry
        Fm 
Yeah I know that I let you down
    G# A# 
Is it too late to say I'm sorry now?

[Verse 2]
      G# Cm A# 
I'll take every single piece of the blame if you want me to
     G# Cm A# 
But you know that there is no innocent one in this game for two
      G# Cm A# 
I'll go, I'll go and then you go, you go out and spill the truth
        G# Cm A# 
Can we both say the words and forget this?

[Pre-Chorus]
 G# Cm A# 
Is it too late now to say sorry?
           G# Cm A# 
Cause I'm missing more than just your body
 G# Cm A# 
Is it too late now to say sorry?
        Fm 
Yeah I know that I let you down
    G# A# 
Is it too late to say I'm sorry now?

[Bridge]
 G# Cm A# 
I'm not just trying to get you back on me
 G# Cm A# 
Cause I'm missing more than just your body
 G# Cm A# 
Is it too late now to say sorry?
        Fm 
Yeah I know that I let you down
    G# A# 
Is it too late to say I'm sorry now?

[Chorus]
 G# Cm A# G# Cm 
      I'm sorry, yeah
 A# G# Cm 
Sorry, yeah
 A# 
Sorry
        Fm 
Yeah I know that I let you down
    G# A# 
Is it too late to say I'm sorry now?
[Chorus]
 G# Cm A# G# Cm 
      I'm sorry, yeah
 A# G# Cm 
Sorry, yeah
 A# 
Sorry
        Fm 
Yeah I know that I let you down
    G# A# 
Is it too late to say I'm sorry now?

Sorry chords – Hazen Street

 Hazen Street
Sorry
Hazen St.
2004
Submitted by: jeremyunderground41

Key: A

Tuning: Standard EADGBe

Chords used:
 F#m  - 244222
 D  -   xx0232
 A  -   022000
 E  -   022010
 Bm  -  x24432
 C#m  - x46654


Intro:
F#m-A-C#m-Bm- x3
F#m-A-C#m-Bm-E-


Verse 1: Bass Only
 F#m E 
I'm so sorry I've
been impossible
   A 
I know So used to
       Bm E 
being on my own
 F#m 
living so reckless
 E 
Tell me what you
            A 
want me to do
I know you want
     Bm E 
the best for me
        F#m 
and you   And I
     E 
hope you understand
          A 
That I'm trying to
        Bm 
cope I want to be
     E F#m 
something Give me
some more time and
        E 
you'll know Give me
           A 
some more time and
              Bm  E <-- Guitar Enters
I'll show you that


Chorus 1:
 F#m D 
I won't let
     Bm 
you down
         D 
I won't let
     F#m 
you down
        D 
No more oh
   Bm 
no  I won't
 D 
let you down
 F#m D 
I won't let
     Bm 
you down
         D 
I won't let
     F#m 
you down
        D 
No more oh
   Bm 
no  I won't
 D 
let you down
You give me
 C#m 
Something to
live for
Something
to die for
Something
to hope for
Something
              F#m A C#m Bm F#m A C#m Bm E 
to strive for


Verse 2: Bass Only
 F#m 
Same old story
 E 
  I'm irresponsible
   A 
I know Don't want
           Bm E 
to end up on my own
 F#m 
Feeling so helpless
 E 
Tell me what you
            A 
want me to do
I only want the
 Bm E 
best for me and
    F#m 
you   Give me hope
 E 
  Understand that
   A 
I need your help
        Bm 
If I'm going to
        E 
be something
 F#m 
Just a little time
            E 
and you'll know
              A   Bm E <-- Guitar Enters
Just a little time


Chorus 2:
 F#m D 
I won't let
     Bm 
you down
         D 
I won't let
     F#m 
you down
        D 
No more oh
   Bm 
no  I won't
 D 
let you down
 F#m D 
I won't let
     Bm 
you down
         D 
I won't let
     F#m 
you down
        D 
No more oh
   Bm 
no  I won't
 D 
let you down
You give me
 C#m 
Something to
live for
Something
to die for
Something
to hope for
Something
              F#m A C#m Bm 
to strive for


Guitar Solo:
F#m-A-C#m-Bm- x3
F#m-A-C#m-Bm-E


Verse 3: Bass Only
 F#m E 
I'm so sorry I've
been impossible
   A 
I know So used to
       Bm E 
being on my own
 F#m 
Just a little time
            E 
and you'll know
               A Bm E 
Just a little time


Chorus 3:
 F#m D 
I won't let
     Bm 
you down
         D 
I won't let
     F#m 
you down
        D 
No more oh
   Bm 
no  I won't
 D 
let you down
 F#m D 
I won't let
     Bm 
you do

Someday After A While Youll Be Sorry chords – Eric Clapton V1

 Intro: 
|  D9  |  D9  |  G9  |  Abdim7  |
|  D9 Bm7 |  Em7 A7  |  D D/F# G Abdim7  |  D A7  |

Verse 1 -------------------------------------------------
      D9 G7 
I got to ride that lonesome train. My heart is heavy with
 Abdim7 D Bm7 
aches and pain. I said but someday, someday baby, after
 Em7 A7 D D/F# G Abdim7 D A7     
a while,   you will be sorry.

Verse 2 -------------------------------------------------
    D9 G9 Abdim7 
Every day my clouds are grey, takes you to roll all those
                     D9 Bm7 
clouds away. I said that but someday, someday baby,
         Em7 A7 D D/F# G Abdim7 D D7 
after a while,   you will be sorry.

Bridge -------------------------------------------------
 G7 D7 
Trouble, trouble, trouble on my mind. Trouble, trouble,
                    E7 
way down the line.    I don't need, I don't need no
              A A11 
sympathy. So babe, babe, don't you,   don't you pity me.

Verse 3 -------------------------------------------------
 D9 G9 Abdim7 
I may be blue, but I don't mind,   because I know way down
                 D9 Bm7 Em7 A7  
the line. I said someday, someday baby,   after a while,
          D D/F# G Abdim7 D Eb9 D9  
you will be sorry.

The Sorry State chords – Pineapple Thief V2

                                           Artist - Pineapple Thief
                                         **************************
                                           Song - The Sorry State 
                                          ************************
                                          Album - Tightly Unwound 
                                         *************************
                                            - Ayreon77
                                          **********************


INTRO
******
 Bm A Bm 
Aahh Aahh... Aahh....... 
 Bm A Em Bm   
Aahh Aahh... Aahh.......
 Bm A Em Bm   
Aahh Aahh... Aahh.......
 Bm Em Bm 
Aahh Aahh... Aahh.......

 F#  
---------------------------------------------
VERSE 1
********
 Bm A Bm 
One false move into this sorry state
          A Em Bm 
One poor soul in this lonely space
     A Em Bm 
One heart to shoulder all the blame
          A Bm 
A single cloud for you pouring rain

---------------------------------------------
CHORUS
*******
    F# G Bm A 
It turns cold, when the world unfolds
      F# G Bm A 
When one false move can turn your world
 F# G A 
In side out

---------------------------------------------
VERSE 2
********
 Bm A Em Bm 
Settle down into your sorry state
                 A Em Bm 
The world won’t move in your darkened place
              A Em Bm 
I can’t move here to shoulder all the blame
          A Bm 
A single cloud is rearing up again

---------------------------------------------
CHORUS
*******
---------------------------------------------
SOLO - Distorted
*****
[------s-s-----------------------|-7-7-|--------s-s---------------------|
[-----3\5/3-------3---3-3-3-3--3-|-7-7-|-------3\5/3---------3-3-3-3--3-|
[---4-------4---4-----4-4-4-4--4-|-----|--s--4-------4---4---4-4-4-4--4-|
[-4-----------2-------4-4-4-4--4-|-----|-2\4-----------2-----4-4-4-4--4-|
[--------------------------------|-----|--------------------------------|
[--------------------------------|-----|--------------------------------|


[--s-----h-----s---------s---------7-7---|--s-s----|
[-3\5-5-5-7-7-7\10--10-10\8-7--8-8-----7-|-5\7/5-3-|
[----------------------------------------|---------|
[----------------------------------------|---------|
[----------------------------------------|---------|
[----------------------------------------|---------|


[------s-s---------h-p-----2--2--2-|
[-----3\5/3-------2-3-0----3--3--3-|
[---4-------4---4-------2--4--4--4-|
[-4-----------2------------4--4--4-|
[----------------------------------|
[----------------------------------|

---------------------------------------------
CHORUS
*******
---------------------------------------------

 F# G C 
In side out


ENJOY....

Sorry And Thanks Tabs by Biffy Clyro

 ------------------------------------------------------------------------------
                          Sorry and Thanks - Biffy Clyro

------------------------------------------------------------------------------
: @St4rsAndShites (Twitter)


Tuning: C#G#C#F#A#D# (drop C#)

Order:

Intro (I)
Verse (II)
Pre-Chorus instrumental (III)
Pre-Chorus (IV)
Chorus (V)
Verse (II)
Pre-Chorus Instrumental (III)
Pre-Chorus (IV)
Chorus(V)
Bridge (VI)
Outro (VII)


(I)
|-----------------11--p9------------------9--h11--h9-----------------11--p9-|
|-11------------9---------11------------9------------11------------9--------|
|----11-------9--------------11-------9-----------------11-------9----------|
|-------11--9-------------------11--9----------------------11--9------------|
|---------------------------------------------------------------------------|
|---------------------------------------------------------------------------|

|---------------------------------------------------------------------------|
|-11---7---9----------------------------------------------------------------|
|----------9----------------------------------------------------------------|
|----------9----------------------------------------------------------------|
|---------------------------------------------------------------------------|
|---------------------------------------------------------------------------|

(II)
|-----------------------14-p-12------------------------12-h14-p12-----------|
|----14--------------12-------------14--------------12----------------------|
|-------14--------12-------------------14--------12-------------------------|
|----------14--12-------------------------14--12----------------------------|
|-12-----------------------------12-----------------------------------------|
|---------------------------------------------------------------------------|

|-----------------------14-p-12---------------------------------------11-p9-|
|----14--------------12----------b12-b12-b12-b12-b12--11------------9-------|
|-------14--------12-------------------------------------11-------9---------|
|----------14--12-------------------------------------------11--9-----------|
|-12------------------------------------------------9-----------------------|
|---------------------------------------------------------------------------|

|--------------------9-h11-p9-------------------11-p9-----------------------|
|----11------------9------------11------------9-------11--------------------|
|-------11-------9-----------------11-------9------------9------------------|
|----------11--9----------------------11--9----------------11-9-8-----------|
|-9---------------------------9---------------------------------------------|
|---------------------------------------------------------------------------|

(III)
|---------------------------------------------------------------------------|
|---------------------------------------------------------------------------|
|---------------------------------------------------------------------------|
|---------------------------------------------------------------------------|
|-0-7-x-5-4-5-4-5-4-0--0-7-x-5-11-12-11-9-----------(repeat)----------------|
|-0-0-0-0-0-0-0-0-0-0--0-0-0-0-0--0--0--0-----------------------------------|

(IV)
|---------------------------------------------------------------------------|
|------------------------------------------------------------------(repeat)-|
|---------------------------------------------------------------------------|
|-9-9-9-9-9-7-7-7-7-7-7-7-x--0-0-0-0-0-2-2-4-2-4-4-2-x-5-5-5-5-5-5-5-5-5-5--|
|-9-9-9-9-9-7-7-9-7-9-9-7-x--0-0-0-0-0-2-2-2-2-2-2-2-5-5-5-5-5-5-5-5-5-5-5--|
|-9-9-9-9-9-7-7-7-7-7-7-7-12-0-0-0-0-0-2-2-2-2-2-2-2-x-5-5-5-5-5-5-5-5-5-5--|

(V)
|---------------------------------------------------------------------------|
|-------------------------------------------------------------

Sorry chords – Kyteman

 -----------------------------------------------------------------
                             Sorry - Kyteman
-----------------------------------------------------------------
: deHufter
 kurtkill@hotmail.com

Tuning: standard

Chords played:

    Gm Eb Cm D Am Bb G 
e|--3--6---3--5--0---1--3--|
B|--3--8---4--7--1---3--3--|
G|--3--8---5--7--2---3--4--|
D|--5--8---5--7--2---3--5--|
A|--5--6---3--5--0---1--5--|
E|--3-------------------3--|

Intro + 'Verse':

 Gm  -  Eb  -  Cm  -  D Gm  -  Eb  -  Cm  -  D  -  Gm 

Bridge to climax:

 Gm  -  Am  -  Bb  -  Cm  -  D 

Then again:

 Gm  -  Eb  -  Cm  -  D Gm  -  Eb  -  Cm  -  D  -  Gm 

It ends on a G instead of Gm

Have fun!

Im Sorry Tabs by Beast

 I’m Sorry – Beast

Intro and verse:

e|------0-----------|------0-----------|
B|-----1------1-3---|-----1------1-3---|
G|---2------2-------|---1------1-------|
D|------------------|------------------|
A|------------------|------------------|
E|-1------1---------|-1-------1--------|
   T      T           T       T          (T is thumb)

e|-------------------|--------------------|-0----|
B|-------3-------1---|-------3-------1----|-0----|
G|-----0-------0-----|-----2-------2------|------|
D|---2-------2-------|---2-------2--------|------|
A|-------------------|-0-------0----------|------|
E|-0-------0---------|--------------------|------|
  

Verse and Chorus Chords

FMaj7,   Fm*,    Em7,    Am7     
(play Fm with a diminished note like  x33100, FMaj 7 x33210)

Bridge at 2:45
F, G, Em7, Am7   x2