Tag: Spirit

Spirit Of Ketih Moon Tabs – Peter And The Test Tube Babies

 hi Folks,  today this is my cover from Peter and the test 
tube babies - Spirit of Keith Moon!

more informations? need that i edit a other cover?: machine_sk8@hotmail.fr

don't forget to rate me please!and comments!

enjoy !

*=palm mute
/= slide
~= bend

Intro:

e|-------------------------------------|
b|-------------------------------------|
g|----2-------2------2---3-3-2-2-------|
d|0-0---0-0-0---0-3-3--3---------3-----|
a|-------------------------------------|
e|-------------------------------------|

e|-------------------------------------------------------------------------------------------------|
b|-------------------------------------------------------------------------------------------------|
g|-------------------------------------------------------------------------------------------------|
d|14-14-14-14-14-14-14-14-14-14-14-14-14-14-14-12-12-12-12-12-12-12-12-12-12-12-12-12-12-12--------|
a|-------------------------------------------------------------------------------------------------|
e|-------------------------------------------------------------------------------------------------|

Verses:

e|------------------------------------------|
b|------------------------------------------|
g|------------------------------------------|
d|14------------------14--------15-14-12----|repeatX3
a|----*12*12*12*12*12----*12*12-------------|
e|------------------------------------------|

e|-----------------------------------------------------|
b|-----------------------------------------------------|
g|-----------------------------------------------------|
d|14------------------14--------14-12-14-15-14-12------|
a|----*12*12*12*12*12*---*12*12*-----------------------|
e|-----------------------------------------------------|

e|-------------------------------------------------------------------------------------------------|
b|-------------------------------------------------------------------------------------------------|
g|-------------------------------------------------------------------------------------------------|
d|14-14-14-14-14-14-14-14-14-14-14-14-14-14-14-12-12-12-12-12-12-12-12-12-12-12-12-12-12-12--------|
a|-------------------------------------------------------------------------------------------------|
e|-------------------------------------------------------------------------------------------------|

Verses:

e|------------------------------------------|
b|------------------------------------------|
g|------------------------------------------|
d|14------------------14--------15-14-12----|repeatX3
a|----*12*12*12*12*12----*12*12-------------|
e|------------------------------------------|

e|-----------------------------------------------------|
b|-----------------------------------------------------|
g|-----------------------------------------------------|
d|14------------------14--------14-12-14-15-14-12------|
a|----*12*12*12*12*12*---*12*12*-----------------------|
e|-----------------------------------------------------|

Outro:

e|-------------------------------------------------------------------------------------------------|
b|-------------------------------------------------------------------------------------------------|
g|-------------------------------------------------------------------------------------------------|
d|14-14-14-14-14-14-14-14-14-14-14-14-14-14-14-12-12-12-12-12-12-12-12-12-12-12-12-12-12-12--------|
a|-------------------------------------------------------------------------------------------------|
e|-------------------------------------------------------------------------------------------------|

e|-------------------------------------|
b|-------------------------------------|
g|---9---9---10---10-------------------|
d|-7---7---7----7----------------------|
a|-------------------------------------|
e|-------------------------------------|

chorus:

e|-------------------------------------|
b|-------------------------------------|
g|7---10-10-10-10--5-5-5---------------

Spirit Desire Acoustic chords – Tigers Jaw

 I couldn't find these chords anywhere, so I decided to post them for everyone else.  Enjoy
-Ryan Emmert


So basically it is two variations of an open F chord which are...
      
      RHYTHM(listen to the song to be more accurate)

      x  x x x  x  x x x x      x  x x x  x  x x x 

e|--------------------------------------------------|
B|----2-----------------------0---------------------|
G|----2-----------------------2---------------------|
D|----0-----------------------0---------------------|
A|----0-----------------------0---------------------|
E|----2-----------------------2---------------------|


...followed by an A & A5 chord which are

      x  x x x  x  x x x      x  x x x  x  x x x 

e|--------------------------------------------------|
B|----2-----------------------0---------------------|
G|----2-----------------------2---------------------|
D|----2-----------------------2---------------------|
A|----0-----------------------0---------------------|
E|--------------------------------------------------|


Lyrics


Waiting for the sun, but I know that it'll come.

I feel reborn when you touch my arm.

Whole new view, feel better when I talk to you. 

I get scared with what I wear.

Even when you yell, I still love your belly,

It's true, it's true. 

Riding it through the night, straight through.


It still feels new when I talk to you.

I feel reborn when the sun gets warm.

It's hard but I feel better when I'm not inside.

I get scared you'll leave me soon, 

Even though we call each other every afternoon,

It's true, it's true.

It took a little time, but I, well I know you.


I'm not bored at all, you can call me when you want to call.

Oh, I'm not bored at all, you can call me when you wanna call.


I used to want to show you every single line,

Now it's hard for me to show you anything I write.

Know that I get nervous when we're not alone, 

I wait for you for hours when you're coming home.

When we started talking I got so excited,

I swear I tried to go out every single night.

Know that you will always be the one who's my... 


Spirit desire, spend my time,

Tell me that you're always gonna be in my life.


Oh, I'm not bored at all, you can call me when you wanna call.

Dare chords – Stan Bush V2

 G C D C C D G 
Sometimes when your hopes have all been shattered
 C 
And there's nowhere to turn
 G C 
You wonder how you keep going
 G 
Think of all the things that really mattered
 C 
And the chances you've earned
 G C 
The fire in your heart is growing
 Bb C 
You can fly, if you try leaving the past behind
 Dm C D 
Heaven only knows what you might find

 G C Em D 
Dare - dare to believe you can survive
 G C D 
You hold the future in your hand
 G C Em D 
Dare - dare to keep all of your dreams alive
 D C D C D C 
It's time to take a stand
 D G 
And you can win, if you dare

 G 
Everybody's trying to break your spirit
 C 
Keeping you down
 G C 
Seems like it's been forever
 G 
But there's another voice if you'll just hear it
 C 
Saying it's the last round
 G C 
Looks like it's now or never
 Bm C 
Out of the darkness you stumble into the light
 Dm D 
Fighting for the things you know are right


 G C Em D 
Dare - dare to believe you can survive
 G C D 
The power is there at your command
 G C Em D 
Dare - dare to keep all of your dreams alive
 D C D C D C 
It's time to take a stand
 D E D 
And you can win, if you dare

 Em D Em D Em C D C D G C Em D 
Dare - dare to believe you can survive
 G C D 
You hold the future in your hand
 G C Em D 
Dare - dare to keep all of your dreams alive
 G C D 
The power is there at your command

 G C Em D 
Dare - dare to keep all your love alive
 G C D 
Dare to be all you can be
 G C Em D 
Dare - 'cause there is a place where dreams survive
 G C D 
And it's calling you on to victory

In The Night Acoustic chords – Mike Mains And The Branches

 -----------------------------------------------------------------
     In The Night - Mike Mains & The Branches
-----------------------------------------------------------------
: StarrGuitarist
Email: Starrguitarist

Tuning: Standard ebgdaE


Intro:  C Am C Am 

Verse
 C Am C Am 
Say you, Say me, Goodbye to thee
 C Am 
My spirit left its cage tonight
         C Am C Am 
So I’m looking for a place in heavens light
      C Am C Am 
So wait for me, My sweet honeybee
 C Am 
Everything will be just fine
 C Am 
Push back the curtains and drink in the sun

Prechorus
 Am 
The house burning down and there’s no fire escape
 G 
Decide tonight if you will stay or if you’ll run away

Chorus
 Am F C G Am F C G 
Cause I love you more than ever And I need you here tonight
 Am F C G Am F C G 
If you find yourself lonely I will be with you in the night
 Am F C G C Am C Am 
I will be with you…



Verse
 C Am C Am 
Say you, Say me, I do not believe
 C Am 
Everything I as it seems
 C Am         
So stick a hook in my heart cast it into the streets
 C Am    
Then park the car Come in rescue me

Prechorus
 Am 
The house burning down and there’s no fire escape
 G 
Decide tonight if you will stay!

Chorus
 Am F C G Am F C G 
Cause I love you more than ever And I need you here tonight
 Am F C G Am F C G 
If you find yourself lonely I will be with you in the night
 Am F C G Am G C D E 
I will be with you No!

Bridge
 C 
Checking my pulse, am I still electric?
 Am Gsus 
Changing my clothes How did I get so far way from home?
 G 
I’m just a lost boy looking for home
 C 
I’ve got that Springsteen shoulder-shake
 Am 
I’ve got this pristine plan to make
 G 
And every fountain, and pen, and camera lens
 G G 
Tells stories of the thoughts I think 


Prechorus
 Am 
The house burning down and there’s no fire escape
 G 
Decide tonight if you will stay!

Chorus
 Am F C G Am F C G 
Cause I love you more than ever And I need you here tonight
 Am F C G Am F C G 
If you find yourself lonely I will be with you in the night
 Am F C G     
I will be with you No!

 Am F C G Am F C G 
Cause I love you more than ever And I need you here tonight
 Am F C G Am F C G 
If

Stand Beside Me chords – Hothouse Flowers

 Stand Beside Me

Intro:  Gm ,  Bb6 ,  Csus4 ,  Gm/C ,  Csus4 ,  Gm/C ,  F F 
He has been living, through the pages of our time,
Known as a true man, pure and sublime
               Dm 
Comes from the earth, and out of the skies
                              F   
From the four corners of the compass, and into our lives

 F 
He is followed, He who is true,
To what there is to be believed in, To the spirit of you
                Dm 
Comes from the day and out of the night
                    F 
It's in all things natural It's in all things right

     Gm F 
Oh sometimes, it's just not that easy
     Gm Bb6 Csus4 Gm/C Csus4 Gm/C 
Oh Sometimes, I go to call you, call you

       F 
Stand beside me God, Stand beside me
 Dm 
Stand before me, And behind me
 Gm F 
So I can follow in love

 F 
And it all sails so smoothly with a prayer at each hand
We all carry our stones, our good books, On the Holy ground, 
                      Dm 
we stand True to the day, true to the night
                F 
It's got to be natural, it's got to be right

    Gm F 
Oh Sometimes it's still not that easy
    Gm Bb6 Csus4 Gm/C        
No Sometimes I'm not the man I think I am, Feel I am,
 Csus4 Gm/C 
Hope I am Know I am

 F 
Stand beside me, Stand beside me
 Dm 
Stand before me, And behind me
 Gm F 
So I can be true, so I can be true to my word

Stand beside me
Stand beside me
Stand before me
Stand beside me

Oceans chords – Hillsongs

 Oceans - Hillsong
Capo 4
Intro:  Em G/F G D C    (2x)

Verse 1 
 Em G/F G 
You call me out upon the waters
           D C 
The great unknown where feet may fail
 Em G/F G 
And there I find you in the mystery
       D C 
In oceans deep, my faith will stand 

Chorus  (1x)
 C G D 
And I will call upon Your name
 C G D 
And keep my eyes above the waves
              C 
When oceans rise
              G D 
My soul will rest in Your embrace
          C G 
For I am Yours and You are mine

Intro:  Em G/F G D C   (1x)

Verse 2
 Em G/F G 
Your grace abounds in deepest waters
             D C 
Your sovereign hand will be my guide
 Em G/F G 
Where feet may fail and fear surrounds me
             D C 
You’ve never failed and You won’t start now 

Chorus   (2x)
Intro:  Em G/F G D C   (1x)


Bridge   (3x)
 Em C 
Spirit lead me where my trust is without borders
        G 
Let me walk upon the water
     D 
Wherever You would call me
 Em C 
Take me deeper than my feet could ever wander
        G 
And my faith will be made stronger
        D 
In the presence of my Savior

Chorus   (2x)
Outro:  Em G/F G D C   (1x)


The Change chords – Steven Curtis Chapman

 The Change
Steven Curtis Chapman

Capo 3

Guitar Intro in C


Verse 1:

 C 
Well I got my self a T-shirt that says what I believe
 C 
I got letters on my bracelet to serve as my ID
            F 
I got the necklace and the key chain
                                         C 
And almost everything a good Christian needs yeah
 C 
I got the little Bible magnets on my refrigerator door
 C 
And a welcome mat to bless you before you walk across my floor
          F 
I got a Jesus bumper sticker
                                       G 
And the outline of a fish stuck on my car
                       F 
And even though this stuff’s all well and good yeah
 G F 
I cannot help but ask myself


Chorus 1:

                  G# A# 
What about the change?  What about the difference?
                 C D 
What about the grace?   What about forgiveness?
               G# A# 
What about a life that’s showing?  I’m undergoing the change yeah.
                    C 
I’m undergoing the change


Verse 2:

 C 
Well I’ve got this way of thinking that comes so naturally
 C 
Where I believe the whole world is revolving around me
        F G 
And I got this way of living that I have to die to every single day
                         F 
‘Cause if God’s spirit lives inside of me yeah
 G F 
I’m gonna live life differently


Chorus 2:

                     G# A# 
I’m gonna have the change.  I’m gonna have the difference
                     C D 
I’m gonna have the grace.  I’m gonna have forgiveness.
                   G# A# 
I’m gonna live a life that’s showing.  I’m undergoing the change.


[Guitar Solo –  C A# G# A# G# A# G# Fm )


Chorus 3:

                 G# A# 
What about the change?  What about the difference?
                 C D 
What about the grace?   What about forgiveness?
                 G# 
I wanna live a life that’s showing?  


Repeat x 2


Coda:

 C 
What about the change? What about the change?
 C 
What about the change?  What about the change?

Spirit Of The Radio chords – Rush

 Intro:  E   ( E A )x4   E Bsus G#m A A - B E Bsus G#m A C#m - B E Bsus G#m A A - B 
Begin the day with a friendly voice, a companion unobtrusive
   E Bsus G#m A A - B E Bsus G#m A C#m - B 
Plays that song that's so elusive, and the magic music makes your morning mood
  E Bsus G#m A A - B 
Off on your way, hit the open road, there is magic at your fingers
  E Bsus G#m A A  -  B E Bsus G#m A A - B E 
For the Spirit ever lingers, undemanding contact in your happy solitude

    E D/F# E/G# D/F# E 
Invisible airwaves crackle with life, bright antenna bristle with the energy
   E D/F# E/G# D/F# E 
Emotional feedback on timeless wavelength, bearing a gift beyond price, almost free

  E Bsus G#m A A - B 
All this machinery making modern music, can still be open-hearted
  E Bsus G#m A A - B 
Not so coldly charted, it's really just a question, of your honesty, yeah, your honesty
  E Bsus G#m A A - B 
One likes to believe in the freedom of music 
       E Bsus G#m A A - B E B G#m A A - B E 
But glittering prizes and endless compromises, shatter the illusion of integrity

    E D/F# E/G# D/F# E 
Invisible airwaves crackle with life, bright antenna bristle with the energy
   E D/F# E/G# D/F# E 
Emotional feedback on timeless wavelength, bearing a gift beyond price, almost free

Solo: ( E D/F# E/G# D/F# E ) x2  ( E Bsus G#m A A -B) x2   E    ( E A ) x4   E A B E A B E A B E   ( E A )x2   E A B 
For the words of the prophets were written on the studio wall, concert hall
      E A B E A E A E A 
And echoes with the sounds of salesmen, of salesmen, of salesmen

Solo: ( E A ) x8  E 


Note: for the Bsus and  G#m , leave the b and e strings open (Bsus4 and G#m(add#5))

A Lost Forgotten Sad Spirit Tabs by Burzum

 Burzum - A Lost Forgotten Sad Spirit

tremolo picking
e|-------------------|
B|-------------------|
G|-------------------|
D|-4------7---6-7-6--|
A|-2------5---4-5-4--|
E|-------------------|

e|--------------|
B|--------------|
G|--------------|
D|-4-----5---7--|
A|-2-----3---5--|
E|--------------|

e|-----------------------|
B|-----------------------|
G|-----------------------|
D|-5----6----5----8--7---|
A|-3----4----3----6--5---|
E|-----------------------|

normal picking
e|---------------------------------||---------------------------------|
B|---------------------------------||---------------------------------|
G|---------------------------------||---------------------------------|
D|-9-9-9-9-5-5-------------------9-||-9-9-9-9-5-5-----------------9-9-|
A|-7-7-7-7-3-3-4-4-4-4-4-4-5-5-7-7-||-7-7-7-7-3-3-4-4-4-4-3-3-3-3-7-7-|
E|-------------2-2-2-2-2-2-3-3-5---||-------------2-2-2-2-1-1-1-1-----|

e|---------------------------------||---------------------------------|
B|---------------------------------||---------------------------------|
G|---------------------------------||---------------------------------|
D|-9-9-9-9-4-4-3-3-3-3-3-3-7-7-7-2-||-9-9-9-9-4-4-3-3-3-3-3-3-7-6-7-2-|
A|-7-7-7-7-2-2-1-1-1-1-1-1-5-5-5-0-||-7-7-7-7-2-2-1-1-1-1-1-1-5-4-5-0-|
E|---------------------------------||---------------------------------|

e|--------------------------------|
B|--------------------------------|
G|--------------------------------|
D|-5---9---5-------5---9---8---7--|
A|-3---7---3---6---3---7---6---5--|
E|-------------4------------------|

e|-------------------|        |-------------------|
B|-------------------|        |-------------------|
G|-------------------|        |-------------------|
D|-55-5-5-5----------|x3 then |-77-7-7-7-66-6-6-6-|
A|-33-3-3-3-66-6-6-6-|        |-55-5-5-5-44-4-4-4-|
E|----------44-4-4-4-|        |-------------------|

Running chords – Delta Spirit

 "Running"  by Delta Spirit
My simple acoustic version
Tuning: 1/2 step down from standard tuning

Intro:  Em Em 
Hold the light my love, hold the light my love
 Em 
Could you take enough, hold the light my love
     C#dim Cmaj7 Em 
You know I'm done and I'm doomed

 Em 
With a gun against my head, gun against my head
 Em 
Alone myself I stand, with a gun against my head
     C#dim Cmaj7 Em 
You know I'm done and I'm doomed

      C G/B D2 
When I come running 
      C G/B D2 Em 
When I come running to you

 Em 
When I kissed her she fell dead, kissed her she fell dead
 Em 
Did you hear a word I said, when I kissed her she was dead
     C#dim Cmaj7 Em 
You know I'm done and I'm doomed



Chord Suggestions:
 Em :    022000
C#dim: x42000  (also called C#m7b5)
 Cmaj7 : x32000
 C :     x32010
 G/B :   x2003x
 D2 :    xx0230

Faith Jesus Spirit chords – Praise And Worship

 Verse 1
 A7 
Lord the worship we bring
                            Em 
is more than songs that we sing
                                          D2 
it's a reflection of our ever-changing lives
                      A7 
the best we have to offer


 A7 
We don't just lift up our hands
                     Em 
lord we lift up our lives
                                         D2 
for we know that you are worthy of all praise
                      A7 
To You our lifesongs ring

PreChorus
 E 
rescued from darkness
                              A 
we are walking in marvelous light
      E G 
For we are children of the king, sing

Chorus
 A D 
You are worthy of all honor
                   Bm 
glory praise and power
 D2 A7 
King of the nations
 A D 
You are Holy God Almighty
                        Bm 
Clothed in brilliant majesty
 D2 A7 
Father Spirit Jesus

Verse 2
 A7 
Lord the worship we bring
                           Em 
is more thansongs that we sing
                                         D2 
it's a reflection of our ever-changing hearts
                      A7 
the best we have to offer
 A7 
We don't just lift up our hands
                      Em 
Lord we lift up our lives
                                         D2 
for we know that you are worthy of all praise  
                       A7 
To you our lifesongs ring

chorus

Spirit Wind chords – Praise And Worship

 Intro:  Em C G *  Em C G 

VERSE 1:

  Em C G *
Ezekiel stared down into the valley

 Em C D *
Filled with dry bones baking in the sun

 Em C G 
Remains that used to be a mighty army

    C D Em 
To him, it looked like their fighting days were done


VERSE 2:

     Em C G *
But driven by a calling on his life

    Em C D *
He spoke God's words, the bones began to shake

    Em C G 
He stared wide-eyed as the flesh began to form

           C D 
And as he prophesied to the wind

                       C 
The soldiers began to wake


CHORUS:

         G Am C 
And the Lord sent His wind into the valley

     Em C D 
And breathed the breath of life into their souls

     G Am C 
And raised them again a mighty army

     D Em C 
For soon these arisen warriors will battle again

     C Em 
For they have been filled with the Spirit Wind

 C G D Em C G D Em 
Woah, woah, woah...


VERSE 3:

       Em C G *
A pastor stands before his congregation

 Em C D *
Once a mighty army for the Lord
 
     Em C G 
But now he stares into the lifeless eyes

           C Am 
Believers leading carnal lives
 
            D Em 
He wonders what they're fighting for


VERSE 4:

     Em C G *
But driven by a calling on his life

   ( F# )         Em C D 
He spoke God's word like he'd done a hundred times before

     Em C G 
But this time he comes broken and weeping

      C D 
With tears of a broken heart

                         C 
And he cries out to the Lord


Chorus


BRIDGE:

      C G D Em 
Holy Spirit, breathe on me

 C G D 
Breathe Your life in me

[x4]


Chorus

Come Holy Spirit chords – Praise And Worship

 COME HOLY SPIRIT

                        D Em 
Come Holy Spirit, we need you
                         A7 D 
Come Holy Spirit, we pray
                                 D7 G - Gm 
Come with Your strength and Your power
                       D A D  -  A 
Come in your own special way

                        D Em                   
Come like a spring in the desert
                           A D 
Come to the weary of souls
                                   D7 G - Gm 
Lord, let your sweet healing power
                        D A D  –  A  
Touch us and make us whole

                        D Em 
Glory be to the Father,
                           A D 
Glory be to the Son
                                 D7 G - Gm 
Glory be to the Spirit
                         D A7 D 
Now and forever, Amen.

Spirit Wind chords – Haim

 I'm sorry if something is wrong, i'm a begginer at this.

 G 
      
e|---3---|
B|---3---|
G|---0---|
D|---0---|
A|---2---|
E|---3---|

 G 

Change your heart
You suffer from the start
Change your mind
You suffer when you're kind

 G 

Well I fear the dark, I feel the light
I fear it all enough to put up a fight
I feel the water and I fear the rain
I fear it all enough but then it goes to waste


e|-----------------------------|
B|-----------------------------|
G|-----------------------------| 
D|-----------------------------|
A|-------------2-2--3-3--------|
E|---1-1--0-0------------------|

And then you go and I don't know but
I've seen it all before


e|--6------------3------------------------|
B|--8-8--6-------5-5--3-------------------|
G|--7------7-----4------4--4444--24242/2--|(2x)
D|--x------------x------------------------|
A|--x------------x------------------------|
E|--x------------x------------------------|
*(/   slide up)

 G 

Mend your mind
You're running out of time
Mend your heart
It's so hard when we're apart

 G 

Well I fear the dark, I feed the light
I feel it all enough to put up a fight
I feed the water and I fear the rain
I feel it all enough but then it goes to waste


e|-----------------------------|
B|-----------------------------|
G|-----------------------------| 
D|-----------------------------|
A|-------------2-2--3-3--------|
E|---1-1--0-0------------------|(2x)

And then you go and I don't know but
I've seen it all before
I said then you go and I don't know but
I've seen it all before

 Fm Gm 

I know there's a better way for me to say it
 F#m Gm 

I know there's a better way for me to say it
 Fm Gm 

I know there's a better way for me to say it
 Em G   
                      
I know there's a better way for me to say it oh oh


e|--6------------3----------------------|
B|--8-8--6-------5-5--3-----------------|
G|--7------77----4------4--4444-24242/2-|(3x)
D|--x------------x----------------------|
A|--x------------x----------------------|
E|--x------------x----------------------|

e|--6------------3-----------------------|
B|--8-8--6-------5-5--3------------------|
G|--7------7-----4------4--44--24244-244-|
D|--x------------x-----------------------|
A|--x------------x-----------------------|
E|--x------------x-----------------------|

e|--3-6-3----------------------|
B|--5-8-5-----3-------3--------|
G|--4-7-4--44---02244---442----|(2x)
D|--x-x-x---------------------2|
A|--x-x-x---------------------2|
E|--x-x-x---------------------0|

e|---|
B|---|
G|---|
D|---|
A|2--|
E|--3|


 G 
Change your heart
You suffer from the start
Change your mind
You're running out of time

e|--3-6-3----------------------|
B|--5-8-5----33-------33-------|
G|--4-7-4--4----02244----442---|
D|--x-x-x---------------------2|
A|--x-x-x---------------------2|
E|--x-x-x---------------------0|(2x)



e|--3-6-8--9----999--11-----6--3-|
B|--5-8-10-11-----------88--8--5-|
G|--4-7-7--8----------------7--4-|
D|--x-x-x--x----------------x--x-|
A|--x-x-x--x----------------x--x-|
E|--x-x-x--x----------------x--x-|

e|--3-6-3----------------------|
B|--5-8-5----33-------33-------|
G|--4-7-4--4----02244----442---|
D|--x-x-x---------------------2|
A|--x-x-x---------------------2|
E|--x-x-x---------------------0|


End with Em

That Spirit Of Christmas chords – Ray Charles

 That Spirit of Christmas Ray Charles

Intro:  Db ,  F# 

Verse 1:
 Db 
Christmas is the time of year
 Db F# Db 
To be with the one's you love
 Db F#  -  Db 
Sharing all that joy and cheer
 Db B  -  F# 
What a wonderful feelin’
 F# Db 
Watching the one's we love
 Db Ab Ab7 
Having so much fun

Verse 2:
 Db 
I was sittin’ by the fire side
 Db F# Db 
Taking a walk through the snow
 Db F#  -  Db 
Listening to a children's choir
 Db B  -  F# 
Singing songs about Jesus
 F# Db 
The blessed way that He came to us
 Db 
Why can't it remain
 F# 
All through the year
 Db 
Each day the same
 Db Ab 
That's what I wanna hear
 Ab 
It's truly amazin’
 Ab7 Db 
That spirit of Christmas

Verse 3:
 D 
All the kin folk gather round
 D G D 
The lovely Christmas tree
 D G  -  D 
Hearts are glowing full of joy
 D C  -  G 
Sense the gifts that we're giving
 G D 
And the love that we're living
 D 
Why can't it remain
 G 
All through the year
 D 
Each day the same
 D A 
That's what I wanna hear
 A 
It's truly amazin’
 A7 D 
That spirit of Christmas

Tag:
 D 
Why can't it remain
 G 
All through the year
 D 
Each day the same
 D A 
That's what I wanna hear
 A 
It's truly amazin’
 A7 D 
That spirit of Christmas
 A 
It's truly amazin’
 G D 
That spirit of Christmas
 G D 
Oh Christmas, Oh Christmas

Holy Spirit Come chords – Rita Springer

 D G2 
 Holy Spirit come, Holy Spirit dwell
                        Em D/F# 
 Fill Your church with joy over flowing
      G2 D/F# 
 And peace over flowing
      Em D/F# 
 And love over flowing
     G2 A2 
 In all of Your glory 
  
                D G2 
 Holy Spirit come, Holy Spirit dwell
                        Em D/F# 
 Fill Your church with joy over flowing
      G2 D/F# 
 And peace over flowing
      Em D/F# 
 And love over flowing
     G2 A2 
 In all of Your glory
  D 
 Come

Jonathan Tawadros – Holy Spirit Fire chords

 Capo 5 for original ( F , G , Am , G )

//Verse 1
             C D Em D
Would you come Lord Jesus and sanctify with your Holy Spirit be Glorified
             C D Em D
Would you come my maker and make me yours because it's all for you and the Earth is yours
               C D C
Because your worth every breath that I take.

Chorus 1
               C D
Your worth more than the problems that i face
              Em D
Your worth more than every breath I take
               C D C
Your worth more than every season of my soul.

Chorus 2
               C D
Holy Spirit Fire Give us your desires
                   Em
make us more like you
                      D
make us more like you God

You Are There Chords – Mercy Me

 D9 A9 
You have searched me and You know me
 D9 A9 
Familiar with all my ways
 D9 A9 
You have laid Your hand upon me
 D9 A9 
Such knowledge I can’t attain
 D9 A9 
Where can I go from Your spirit
 D9 A9 
Where can I flee from Your presence
 D9 A9 
If I make my bed, in the depths
 D9 A9 
If I go up to the heavens
           Bm 
You are there 
                      E 
And If I rise on the wings on the dawn
      A9 A9/Ab Fm 
If I settle on the far side of the sea
 Bm E 
Even there, Your hand will hold me fast
      A9 A9/Ab Fm 
Even there Your hand  - will guide me
            Bm 
You are there
 E 
You are there     Ohhhhh  Yeah.


            A9 E D D9 D 
And I will sing,  sing a new song, cause You love me
            A9 E D D9 D 
And I will sing,  sing a new song, cause You care
            A9 E D D9 D 
And I will sing,  sing a new song,    cause Your there 

Everythings Gonna Be Cool This Christmas Chords – Eels

 Eels - Everything's Gonna Be Cool This Christmas
Useless Trinkets

Capo 1st fret


 A D  x4

   A D 
Remember last year when you were on your own
     A D 
You swore the spirit couldn't be found
   A D 
December rolled around and you were counting on it 
         G D 
To roll out

       A D 
Well, everything's gonna be cool this Christmas
 A D 
Everything's gonna be cool this Christmas
 A D 
Everything's gonna be cool this Christmas
 A D 
Everything's gonna be cool this Christmas
 A D G D 
Everything's gonna be cool this Christmas

 A D  x2

      A D 
Well everybody's lookin' for you down at the house
     A D 
The tree is looking so inspired
           A D 
There's a yuletide groove waitin' for you to move
             G D 
I'll go and throw another log on the fire

 A D 
Everything's gonna be cool this Christmas
 A D 
Everything's gonna be cool this Christmas
 A D 
Everything's gonna be cool this Christmas
 A D 
Everything's gonna be cool this Christmas
 A D G D 
Everything's gonna be cool this Christmas

 A D A D 
 Baby Jesus - born to rock!

 G D  x3
 A D  x2

    A D 
As days go by the more we need friends
         A D 
And the harder they are to find
    A D 
If I could have a friend like you all my life
        G D 
Well I guess I'd be doin' just fine

 A D  
Everything's gonna be cool this Christmas
 A D 
Everything's gonna be cool this Christmas
 A D 
Everything's gonna be cool this Christmas
 A D 
Everything's gonna be cool this Christmas
 A D G D 
Everything's gonna be cool this Christmas 

 G D  x4
 A D  x4
 A

Come Holy One Chords – Young Oceans

 Verse 1
 D Bm 
Hasten now, O loving Lord to us
       G 
We're thirsty
 D Bm 
Fill these souls, Spirit, every hour
    G 
We need thee

Chorus
 D G 
Come, come Holy One
Come meet us
 D G 
All, all for your glory
Lord Jesus

Verse 2
 D Bm 
Lead us on the perfect path, O Lord
     G 
And may we 
 D Bm 
Sin no more, this spotless bride, the Church 
    G 
Is Yours
 
Chorus (2x)

Bridge
      G D A 
I am yours, only yours
      G D A 
I am yours, only yours
        G D A 
We are yours, only yours
        G D A 
We are yours, only yours

Chorus (2x)