Tag: stern

Einen Stern chords – Dj Oetzi V4

 Einen Stern der Deinen Namen trägt - DJ Ötzi  
by batucaca 

Intro:  C , (E-Seite 3./1./0.Bd),   F C F   
Einen Stern der Deinen Namen trägt ,
                G 
hoch am Himmelszelt  
                         C     / C7/C / C7/C 
den schenk ich Dir heut Nacht.
                              F 
Einen Stern der Deinen Namen trägt,
                 G 
alle Zeiten überlebt
                       C       / C7/C / C7/C 
und über unsere Liebe wacht .


 C                              
Seit Jahren schon leb ich mit Dir
 F                          
  und ich danke Gott dafür,
 G C   / C7/C / C7/C 
  das er mir Dich gegeben hat.
 C                                                  
Als Erinnerung an unser Leben
 F                               
  möcht ich Dir heut etwas geben .
 G C     / C7/C / C7/C 
  Ein Geschenk für alle Ewigkeit...


       C F   
Einen Stern der Deinen Namen trägt ,
                G 
hoch am Himmelszelt  
                         C    / C7/C / C7/C 
den schenk ich Dir heut Nacht.
                              F 
Einen Stern der Deinen Namen trägt,
                 G 
alle Zeiten überlebt
                       C       / C7/C / C7/C 
und über unsere Liebe wacht .

 C                              
Irgendwann ist es vorbei
 F            
  und im Himmel wird Platz für uns zwei.
 G C   / C7/C / C7/C 
Doch ein Stern bleibt oben für immer und ewig stehn.
 C      
Und auch nach tausend Jahren
 F                               
  wird er Deinen Namen tragen
 G C     / C7/C / C7/C 
  immer noch der schönste von allen sein...

       C F   
Einen Stern der Deinen Namen trägt ,
                G 
hoch am Himmelszelt  
                         C       / C7/C / C7/C  
den schenk ich Dir heut Nacht.
                              F 
Einen Stern der Deinen Namen trägt,
                 G 
alle Zeiten überlebt
                       C       / C7/C / C7/C 
und über unsere Liebe wacht .


C (E-Seite 3./1./0.Bd),  F

( -einen Ton höher singen! )
      
       D G 
Einen Stern der Deinen Namen trägt ,
                A 
hoch am Himmelszelt  
                         D     / Dsus4/D / Dsus7 / D   
den schenk ich Dir heut Nacht.
                              G 
Einen Stern der Deinen Namen trägt,
                 A 
alle Zeiten überlebt
                       D        / Dsus4/D / Dsus7 / D   
und über unsere Liebe wacht .

Steely Tabs by Marnie Stern

 Marnie Stern - Steely
 Matt Hunziker

She seems to condense this down to one guitar a few different ways when playing it live, 
but this should be accurate to what you hear on the studio version (if THAT were 
condensed down to one guitar).

Standard tuning
R= tapped with right hand


        *INTRO/MAIN RIFF* (tapped, in 4/4)
(pick    
 up
 notes)  1       &       2       &       3       &       4       &       
         R           R           R           R           R  
--------|----------------------------------------------------------------|
--------|----------------------------------------------------------------|
5-h-7---|14--5-h-7---12--5-h-7---11--5-h-7---12--5-h-7---11--7-p-5-h-7---|
--------|----------------------------------------------------------------|
--------|----------------------------------------------------------------|
--------|----------------------------------------------------------------|

         R           R           R           R           R
        |----------------------------------------------------------------|
        |----------------------------------------------------------------|
        |14--5-h-7---12--5-h-7---11--5-h-7---12--5-h-7---14-----(5-h-7)--|
        |----------------------------------------------------------------|
        |----------------------------------------------------------------|
        |----------------------------------------------------------------|



*VERSE RIFF 1*

 1   &   2   &   3   &   4   &    1   &   2   &   3   &   4   &    
          take a look at her now
|--------------------------------|--------------------------------|
|--------------------------------|--------------------------------|
|--------------------------------|--------------------------------|
|5-------------------------------|--------------------------------|
|5-------------------------------|--------------------------------|
|3-------------------------------|--------------------------------|
 
  tossed out                              she got what she was after
|--------------------------------|--------------------------------|
|--------------------------------|--------------------------------|
|--------------------------------|--------------------------------|
|5-------------------------------|--------------------------------|
|5-------------------------------|--------------------------------|
|3-------------------------------|--------------------------------|



*VERSE RIFF 2*

 1   &   2   &   3   &   4   &    1   &   2   &   3   &   4   &
  sounds of the future
|--------------------------------|--------------------------------|
|--------------------------------|--------------------------------|
|--------------------------------|--------------------------------|
|------5---------------------5---|------5---------------------5---|
|--------------------------------|--------------------------------|
|3-----------3-----3-------------|3-----------3-----3-------------|


  imagine it all
|--------------------------------|--------------------------------|
|--------------------------------|--------------------------------|
|--------------------------------|--------------------------------|
|------5---------------------5---|------5---------------------5---|
|--------------------------------|--------------------------------|
|3-----------3-----3-------------|3-----------3-----3-------------|


*WEIRD STOP-START TRANSITION SECTION IN FIRST VERSE*

First there is one beat of 4/4 that cuts off

 1       &
 R       
|----------------|
|----------------|
|14--------------|
|----------------|
|----------------|
|----------------|

Then it immediately switches to 6/8 time, with quarter note pulse remaining consistent
 
 1       &       a       2       &       a        
 R           R           R           R
|------------------------------------------------|
|-----------------------------------

Transformer Tabs by Marnie Stern

 Marnie Stern - Transformer (http://www.killrockstars.com/artists/marnie-stern)
 Matt Hunziker

Based off the live version of the song (i.e., without the studio overdubs)

Standard tuning
220 BPM in 4/4
R= tapped with right hand; L = tapped with left hand

 INTRO RIFF  (tapped)

|1   &   2   &   3   &   4   &   |1   &   2   &   3   &   4   &   |
|R   L   L R(L)  R   L   L R(L)  |R   L   L R(L)  R   L   L R(L)  |
|--------------------------------|--------------------------------|
|9-0-5-h-7-9-7---9-0-5-h-7-9-7---|9-0-5-h-7-9-7---9-0-5-h-7-9-7---|
|--------------------------------|--------------------------------|
|\-3-/---\-3-/---\-3-/---\-3-/---|\-3-/---\-3-/---\-3-/---\-3-/---|
|--------------------------------|--------------------------------|
|-(these are all triplets here)--|--------------------------------|


 MAIN RIFF  (tapped)

|1   e   &   a   2   e   &   a   3   e   &   a   4   e   &   a   |
|L       R       L       R       L       R       L       R       |
|----------------------------------------------------------------|
|4---0---12--0---5---0---12--0---7---0---12--0---7---0---12--0---|
|----------------------------------------------------------------|
|----------------------------------------------------------------|
|----------------------------------------------------------------|
|----------------------------------------------------------------|

|L       R       L       R       L       R       L       R       | 
|----------------------------------------------------------------|
|7---0---12--0---7---0---12--0---7---0---12--0---7---0---12--0---|
|----------------------------------------------------------------|
|----------------------------------------------------------------|
|----------------------------------------------------------------|
|----------------------------------------------------------------|


 VERSE RIFF
 fingers                                                 be -
|1   &   2   &   3   &   4   &   |1   &   2   &   3   &   4   &   |
|--------------------------------|--------------------------------|
|--------------------------------|--------------------------------|
|--------------------------------|--------------------------------|
|7-------7-------7-------7-------|7-------7-------7-------7-------|
|7-------7-------7-------7-------|7-------7-------7-------7-------|
|5-------5-------5-------5-------|5-------5-------5-------5-------|

 lieving
|--------------------------------|--------------------------------|
|--------------------------------|--------------------------------|
|--------------------------------|--------------------------------|
|5-------5-------5-------5-------|5-------5-------5-------/-------|
|5-------5-------5-------5-------|5-------5-------5-------/-------|
|3-------3-------3-------3-------|3-------3-------3-------/-------|


*CHORUS*
 the     fu  -   ture    is       yours   so      fill    this
|1   &   2   &   3   &   4   &   |1   &   2   &   3   &   4   &   |
|--------------------------------|--------------------------------|
|--------------------------------|--------------------------------|
|--------------------------------|--------------------------------|
|--------------------------------|--------------------------------|
|--------------------------------|--------------------------------|
|--------------------------------|--------------------------------|

 part    in                      
|--------------------------------| repeat this 3-measure section 3X
|--------------------------------|
|--------------------------------|
|----------------9-------9-------|
|----------------9-------9-------|
|----------------7-------7-------|

 the     fu  -   ture    is       yours   so      fill    this
|1   &   2   &   3   &   4   &   |1   &   2   &   3   &   4   &   |
|--------------------------------|--------------------------------|
|--------------------------------|----------------