Tag: steven

Steven Universe – Peace And Love On Planet Earth Tabs – Misc Cartoons

 -------------------------------------------------------------------------------
                             Peace & Love (On Planet Earth) - Steven Universe
-------------------------------------------------------------------------------

Provided lyrics are a rough guide.

Tuning: Standard

    Life...       love...         peace...        planet earth
e|8-----8---------7-----7---------7-----7---------5-----5---------|
B|8---------8-----8---------8-----5---------5-----5---------5-----|
G|9-----------9---9-----------9---5-----------9---5-----------5---|
D|----------------------------------------------------------------|
A|----------------------------------------------------------------|
E|----------------------------------------------------------------|

    Is there   anything...        Peace...        planet earth?
e|8-----8---------7-----7---------7-----7---------5-----5---------|
B|8---------8-----8---------8-----5---------5-----5---------5-----|
G|9-----------9---9-----------9---5-----------9---5-----------5---|
D|----------------------------------------------------------------|
A|----------------------------------------------------------------|
E|----------------------------------------------------------------|

    Come on...    Me,               the words...  key,
e|8-----8---------7---------------7-----7---------5---------------|
B|8---------8-----8---------------5---------5-----5---------------|
G|9-----------9---9---------------5-----------9---5---------------|
D|----------------------------------------------------------------|
A|----------------------------------------------------------------|
E|----------------------------------------------------------------|

    If...           if...           then...       me,
e|8-----8---------7-----7---------7-----7---------5---------------|
B|8---------8-----8---------8-----5---------5-----5---------------|
G|9-----------9---9-----------9---5-----------9---5---------------|
D|----------------------------------------------------------------|
A|----------------------------------------------------------------|
E|----------------------------------------------------------------|

    Life...       love...           Life...       love...  But using
e|8-----8---------7---------------7-----7---------5---------------|
B|8---------8-----8---------------5---------5-----5---------------|
G|9-----------9---9---------------5-----------9---5---------------|
D|----------------------------------------------------------------|
A|----------------------------------------------------------------|
E|----------------------------------------------------------------|

  mi fa mi mi fa  mi ti la    and peace...        planet earth,
e|8-----8---------7-----7---------7-----7---------5-----5---------|
B|8---------8-----8---------8-----5---------5-----5---------5-----|
G|9-----------9---9-----------9---5-----------9---5-----------5---|
D|----------------------------------------------------------------|
A|----------------------------------------------------------------|
E|----------------------------------------------------------------|
    Yes, yes, that's it...
e|8-----8---------7---------------7-----7---------5---------------|
B|8---------8-----8---------------5---------5-----5---------------|
G|9-----------9---9---------------5-----------9---5---------------|
D|----------------------------------------------------------------|
A|----------------------------------------------------------------|
E|----------------------------------------------------------------|

  You should write...                                   ...already
e|8-----8---------7-----7---------7-----7---------5-----5---------|
B|8---------8-----8---------8-----5---------5-----5---------5-----|
G|9-----------9---9-----------9---5-----------9---5-----------5---|
D|----------------------------------------------------------------|
A|----------------------------------------------------------------|
E|--------------------------------

Steven Universe Theme Tabs – Rebecca Sugar

 -------------------------------------------------------------------------------
                             SONG NAME - Band Name
-------------------------------------------------------------------------------
:


Tuning:

e|---------------------------------------------------------------------------|
B|----0-----------0-----------0-----------0-----------0----------------------|
G|------2-0-2-------2-0-2-------2-0-2-0-----2-0-2-0-----2-0-2-0--------------|
D|--0---------2-0---------0-0-----------2-----------2-----------2-0-2-2-0----|
A|---------------------------------------------------------------------------|
E|---------------------------------------------------------------------------|

e|---------------------------------------------------------------------------|
B|--0-----------0------------------------------------------------------------|
G|----2-0-2-0-----2-2-0------------------------------------------------------|
D|------------2--------------------------------------------------------------|
A|---------------------------------------------------------------------------|
E|---------------------------------------------------------------------------|


************************************

| /   slide up
| \   slide down
| h   hammer-on
| p   pull-off
| ~   vibrato
| +   harmonic
| x   Mute note
| b   Bend

************************************

3 Years Older Tabs – Steven Wilson

 -------------------------------------------------------------------------------
                             3 Years Older - Steven Wilson
-------------------------------------------------------------------------------
: David Benítez
 debml700

Tuning: EADGBe

Hey guys, right now I'm missing the clean solo and the final one, I'll get to it eventually...
For some parts I only wrote the chord used, not the strumming pattern so be sure to
listen to the song to identify these.
Any comments or corrections are more than welcome below on the comments section,
and please don’t forget to rate! Have fun with this amazing song!

Intro A
Play with the rhythm a bit, not exactly this one but the chords are right.
e||-3-3--2--0-0-0-0--3-3--2--0-0-2-0-0-0----||
B||-3-3--3--3-3-3-3--3-3--3--3-3-3-3-3-3----||
G||-2-2--2--2-2-2-2--2-2--2--2-2-2-2-2-2----|| x4
D||-0-0--0--0-0-0-0--0-0--0--0-0-0-0-0-0----||
A||-----------------------------------------||
E||-----------------------------------------||

Again the same pattern, but a bit more staccato-ed, and with a bit of overdrive
                                        x4
e||-3-3--2--0-0-0-0--3-3--2--0-0-2-0-0-0-||-1-1--1-0-0-0-0--1-1--1--0-0-0-||
B||-3-3--3--3-3-3-3--3-3--3--3-3-3-3-3-3-||-1-1--1-1-1-1-1--1-1--1--1-1-1-||
G||-2-2--2--2-2-2-2--2-2--2--2-2-2-2-2-2-||-0-0--0-0-0-0-0--0-0--0--0-0-0-||
D||-0-0--0--0-0-0-0--0-0--0--0-0-0-0-0-0-||-0-0--0-0-0-0-0--0-0--0--0-0-0-||
A||--------------------------------------||-1-1--1-1-1-1-1--1-1--1--1-1-1-||
E||--------------------------------------||-------------------------------||

e|-------------------------|
B|-------------------------|
G|--------------------9----|
D|-6----2----8---7----9----|
A|-6----2----8---7----7----|
E|-4----0----6---5---------|


Intro B
Rhythm
e||---------------------------------------------------||
B||---------------------------------------------------||
G||-7--7--7-7-7-7-7-7-7--7--7--7-7-7-7-7-7-7-7-7-7----|| x8
D||-7--7--7-7-7-7-7-7-7--7--7--7-7-7-7-7-7-7-7-7-7----||
A||-5--5--5-5-5-5-5-5-5--5--5--5-5-5-5-5-5-5-5-5-5----||
E||---------------------------------------------------||

Lead
e|-------------------------------------------------------|
B|-8--------8-8-8--------8--7-------------7-8------------|
G|---------------------------------9p7--9----------------|
D|-------------------------------------------------------|
A|-------------------------------------------------------|
E|-------------------------------------------------------|

e|-------------------------------------------------------|
B|-15----13-12-10------10--10h12--10----8p7--------------|
G|-----------------12------------------------------------|
D|-------------------------------------------------------|
A|-------------------------------------------------------|
E|-------------------------------------------------------|

e|----------------------------------15b17r15-------------|
B|--------7-8--10--12--15/17--15-------------------------|
G|-7----9------------------------------------------------|
D|-------------------------------------------------------|
A|-------------------------------------------------------|
E|-------------------------------------------------------|

                                      x5
e||-3--3--2--3---3--3--2--3--2--3-3----||-3----3----1------1-------|
B||-3--3--3--3---3--3--3--3--3--3-3----||-3----3----1----1----1----|
G||-0--0--2--2---0--0--2--2--2--2-2----||-0----0----0--------------|
D||-0--2--0--0---0--2--0--0--0--0-0----||-2----0----0--------------|
A||-2--3---------2--3------------------||-3----2----1--------------|
E||-3------------3---------------------||------3-------------------|

                                        x3
e||---------------------------------------||-------------------|
B||-2-----3-----5-----7------8--/10-10----||-12----12/14-14----|
G||---0-----0-----0-----0-----------------||-0-----------------|
D||-----2(/)--4-----5-----7-(9)/(11)------||-12----12/14-14----|
A||------------

Happy Returns Tabs by Steven Wilson

 _____________________________________________________________________
                           Happy Returns 
              ("Hand. Cannot. Erase")
_____________________________________________________________________

: Roie Meltzer
Email: roiemeltzer

Great song by Steven Wilson
This is how i play it.
played on regular tuning.

_____________________________________________________________________


Chords for the Verse:

      (C)                   (Dsus2)     (Em)           (C)
       
e ||---0-----------------------0----------0-------------0----------------||
B ||---1-----------------------3----------0-------------1----------------||
G ||*--0-----------------------2----------0-------------0---------------*|| Repeat
D ||---2-----------------------0----------2-------------2----------------|| every
A ||*--3----------------------------------2-------------3---------------*|| verse
E ||--------------------------------------0------------------------------||
                         [fret according to rhythm]

Chords for the chorus and solo:

      (C)       (C7M9/B)(Am)          (D)  

e ||---0-----0-0-0--0--0---0-0-0---x---2--2-2-2-2---2--2-3-2-0------||
B ||---1-----1-1-1--1--1---1-1-1---x---3--3-3-3-3---3--3-3-3-3------||
G ||*--0-----0-0-0--0--2---2-2-2---x---2--2-2-2-2---2--2-2-2-2-----*|| Repeat along
D ||---2-----2-2-2--0--2---2-2-2---x---0--0-0-0-0---0--0-0-0-0------|| the chorus and
A ||*--3-----3-3-3--2--0---0-0-0---x-------------------------------*|| continue 
E ||----------------------------------------------------------------|| through the solo

last time! -> slow down in the end and play (Em) instead of (D).

      (C)       (C7M9/B)(Am)          (Em)  

e |----0-----0-0-0--0--0---0-0-0---x---0---------|
B |----1-----1-1-1--1--1---1-1-1---x---0---------|
G |----0-----0-0-0--0--2---2-2-2---x---0---------|
D |----2-----2-2-2--0--2---2-2-2---x---2---------| 
A |----3-----3-3-3--2--0---0-0-0---x---2---------|
E |------------------------------------0---------|


SOLO:

e |-----------------------------------------------------------------|
B |---(17)pbr15----12h13p12~----------------------------------------|
G |--------------------------14--12--11-11h12p11--------------------|
D |-----------------------------------------------12---12/14\12~----|
A |-----------------------------------------------------------------|
E |-----------------------------------------------------------------|

e |-----------------------------------------------------------------|
B |-----------------------------------------------------------------|
G |-----------------------------------------------------7~----------|
D |---(12\)7-7--7(~)\5-5~------9h10p9----9h10p9-\7--7---------------|
A |-------------------------10--------10----------------------------|
E |-----------------------------------------------------------------|

e |----(19)pbr17--15-17-17b-15---14----12---------------------------|
B |---------------------------------15----13---12-------------------|
G |------------------------------------------------14~----12\11~----|
D |-----------------------------------------------------------------|
A |-----------------------------------------------------------------|
E |-----------------------------------------------------------------|

e |-----------------------------------------------------------------------|
B |--------------12--------12h13p12--12h13-15b-15-13-12(h13p12)-----------|
G |--11--12--14-------12h14--------14--------------------------14-12-11---|
D |-----------------------------------------------------------------------|
A |-----------------------------------------------------------------------|
E |-----------------------------------------------------------------------|

second part (enters with boost)

e |-----------------------------------------------------------------|
B |-----------------------------------------------------------------|
G |--------------------------------------------------

More To This Life chords – Steven Curtis Chapman

 MORE TO THIS LIFE by: Steven Curtis Chapman

Intro-   Gsus2 Csus2 Gsus2 Csus2     repeat

  Gsus2 
Today I watched in silence      as people passed me by
        Csus2 
And I strained to see  if there was something  hidden in their eyes
             Am7 G/B Csus2 Gsus2 C2 
But they all looked back at me as if to say      Life Just Goes On
  Gsus2 
The old familiar story     told in different ways
               Csus2 
Make the most of your own journey    from the cradle to the grave
 Am7 G/B C Gsus2 D G 
Dream your dreams tomorrow because   today    Life Must Go On   Ohhhhh
                Csus Dsus D Em 
But there’s mo-----re to this life         than livin and dy’in
        D/F# G C Am7 C D 
More   than  just tryin to make it    through   the day
         Csus Dsus4 D Em D 
Mo----re to this life         More than these eyes alone can see
                             C Gsus2 Csus2 
        And there’s more than this life alone can be  (2nd time-to bridge)
       Gsus2 
Tonight he lies in silence      staring into space
         Csus2 
And looks for ways to make tomorrow    better than today
    Am7 G/B C Gsus2 C2 
But in the morning light it looks the same     Life Just Goes On
     Gsus2 
He takes care of his family         He takes care of his work
      Csus2 
And every Sunday morning     he takes his place at the church
      Am7 G/B C Gsus2 D G 
Somehow  he still feels the need to search       Life Just Goes On      Ohhhhh oh

Chorus………  to bridge

 Am7 G/B F C 
Where do we start      to find every part   of what makes this life complete
    Am7 G/B 
If we turn our eyes   to Jesus we’ll find
 F C Dsus D 
life’s true beginning is there at the cross where he died     he died
  G Am7 G/B Csus Dsus D Em 
To   bring  us      mo--re to this Life than livin and dyin
        D/F# G C Am7 C D 
More  than   just tryin to make it through the day
 Csus Dsus D Em D 
Mo---re to this life        More than these eyes alone can see
                     Csus Dsus D Em 
And there’s mo--re to this Life      than livin and dyin
         D/F# G C Am7 C D 
More    than    just tryin to make it through  the day
 Csus Dsus D Em D 
Mo---re to this life         More than these eyes alone can see
               C2 Gsus2 Csus2 
And there’s mo---re than this life alone  can be
 Csus2 Gsus2 Csus2 Gsus2 
More to this life
 Gsus2 Csus2 Gsus2 
More to this life           More than livin and dyin

More than tryin to make it through the night

More than this life alone can be

I Believe In You chords – Steven Curtis Chapman

 I Believe in You   by Steven Curtis Chapmann

Intro:  |  D D2 |   G2      (2X)

 D 
Aren’t you the lit - tle one_
        G2 
That hid in my arms afraid of the thun - der
 D 
Are these the little hands_ 
          G2 
That held so tight to mine_
 D 
Didn’t we both agree__
  G2 A 
You’d ne -ver grow_ up and now here we are 
                        G 
and here_ you go
                    A G A 
Of all the things I want to say_ the things you really need to know

 D2 D D2/C#     (could be  A /C#)
Is I be – lieve__ in  you
    D2/B DMaj7/F#   (could be  F#m7 )
I be – lieve__ in you 
                         Em7 
Everything you are_
 DMaj7/F# G2 Asus                 
Everything you are_ becoming
 D2 D D2/C#     
and I be – lieve_ in you
                   D2/B DMaj7/F# 
yeah I be – lieve_ in you
                                         Em7 
So spread your wings and fly_
           DMaj7/F# G2                           
On the winds of know - ing I’ll
           A D D2 G2 
 Al - ways believe in you 



So many prayers we’ve prayed__ 
So many dreams to get to this moment
Now this is where we stay 
while you go change the world 
But I’ll be where I have always been 
Up in the stands cheering you on and
Singing this song
A song the very God who made you 
Has been singing all along 
            D2 D D2/C#     
 I be – lieve_ in you___
                   D2/B DMaj7/F# 
yeah I be – lieve_ in you
                                         Em7 
So spread your wings and fly_
           DMaj7/F# G2                           
On the winds of know - ing I
         A Bm 
will always believe in you
                       G A 
and when you rise and when you fall 
                   Bm 
I’ll still believe in you 
                         G A Em7 
just close your eyes and hear me calling I believe in you
 D2/F# G A 
Ohhh I believe in you

And I believe in you
I believe in you 
Everything you are
Everything you are becoming
and I believe in you
yeah I believe in you
So spread your wings and fly
On the winds of knowing I’ll
Al - ways believe in you

Steven Universe Theme chords – Rebecca Sugar

 G 
We
                 B7 
Are the Crystal Gems
                       C 
We'll always save the day
                     Cm 
And if you think we can't, we'll
               G 
Always find a way.
                       B7 C 
That's why the people of this world believe in
               Cm G 
Garnet, Amethyst, and Pearl... AND STEVEN!



So, it's a pretty straightforward little song. Figured most of it out on my own 
pretty easily, then read Rebecca Sugar's Tumblr and learned that the Bmajor was actually a  B7 .

Not quite as easy as the Adventure Time theme, but pretty simple.

Steven Georgiou – You Are Everything To Me chords

 Song: You are everything to me
 Steven Georgiou

Capo 3

e------------------------------------------------------------|
B-------0--------0--------0--------0-------------------------|
G-----0--0-0---0--0-0---0--0-0---0--0-0----------------------|
D----2-2--2---0-0--0---2-2--2---2-2--2-----------------------|
A---3--------2--------0--------0-----------------------------|
E------------------------------------------------------------|

Intro

 C  ,  B  ,  Am 

I should have loved you,
Should have cried out your name,
I should have brought you flowers every day,

I should have told you,
How much I love you,
Since the very first of every day,

Bridge

I just don't know why
Why i feel like this
But it's just a great feeling knowing that i met you

Chorus

(Rap-like)
[Coz] Everytime I see you, I just feel so happy,
I don't know why, but it is just so silly,
We both know, We don't know, how to be guilt free,
of knowing that I love you, and that you cannot be with me,

My regrets, My mistakes, never felt so lonely
I was a dumb fuck, never been so sorry,
When I close my eyes it is you that I always see
Thinking of those memories that are so precious to me



Oh |, I've never been so lonely,
You are everything to me,
Oh ^, With you I'm always happy
I hope that I was -never to dumb to realize everything,

.Refrain

I have loved you like a kid who loves his blankee
I have loved you like a girl who loves her teddy
I have loved you like my dog that never leaves me
I have loved you as if you are the one for me

2x (Once before end)



Instrumental
Repeat Intro to Chorus .Instrumental. then Refrain


Ending

I was so dumb before,
never realized that you're the one for me
2x

4min

The Holy Drinker Tabs by Steven Wilson

 Welcome! Any comments and suggestions are more than welcome, and please remember to 
rate, have fun!


Intro Solo... '~' means use of whammy and '*' means pinch harmonics
e|-12-13--10~-------------------------------------------------------|
B|-------------11p9-6-------------/8----------------/8--------1~----|
G|--------------------7---------7----9h10p9-\7-\3h4------9----3~----|
D|----------------------6---5-6------------------------8------------|
A|------------------------------------------------------------------|
E|------------------------------------------------------------------|

e|----------------8--------------------------------------------------------|
B|---8----------------9---8-7---5------------------------------------------|
G|-----7-8---10-----6---6-----8---7-6-3-3-4--------------------------------|
D|---------7----9---------------------------6-5----------------------------|
A|-7--------------------------------------------7-5-4--5---5*--7---7*b8----|
E|-------------------------------------------------------x-------x---------|

e|------------------------------------12--11-10--9-8--6-5---4--------|
B|----------------------------------12--------------------5---6-4----|
G|---------9-9/12-----------------12---------------------------------|
D|-----7-9----------12-x-12*----12-----------------------------------|
A|-7-8---------------------------------------------------------------|
E|-------------------------------------------------------------------|

e|--------------3-4--4/9-10-10-10-10\6-7--6p4h6------------------------------|
B|-3-4-5-6p5h6----------------------------------6p5---5----------------------|
G|--------------------------------------------------7---4p3---2--------------|
D|----------------------------------------------------------4---3-5----------|
A|------------------------------------------------------------------7-5------|
E|----------------------------------------------------------------------7----|
After the solo is over, play the riffs written below

Intro...In-between riffs there is pretty much only harmonics and E chords ringing, so 
play around with that a bit
e|--------------------|
B|--------------------|
G|--------------------| This riff is repeated throughout the intro, on the last rep
D|--------------------| do not play the open E note...
A|---1---0------------|
E|-1---2---3-1-(0)----|

e|-12-------10----------|
B|----11-------10-------|
G|-------9--------9\----| This lick also pops frequently...
D|----------------------|
A|----------------------|
E|----------------------|


Pre-Verse
e|------------------------------|
B|------------------------------|
G|-9-9-9-9--9-9-9-9--9-9-9-9----|
D|-9-9-9-9--9-9-9-9--9-9-9-9----|
A|-7-7-7-7--7-7-7-7--7-7-7-7----|
E|------------------------------|


Verse
e|-------------------------------------0------------|
B|-------------------------------------0------------|
G|-------------------------------9------------------|
D|-5-4-2-2------2----2-----------9------------------|
A|-------0------0----0-----------7------------------|
E|-----------3b---3b--------/15\-0-------------0----|

e|------------------------|
B|------------------------|
G|------------------------|
D|-5-4-2-2------2----2----|
A|-------0------0----0----|
E|-----------3b---3b------|

e|------------------------------------0----|
B|------------------------------------0----|
G|--------9-9------------10--10-9----------|
D|-11-11--9-9--9-9--8-8--10--10-9----------| x2
A|-11-11--7-7--9-9--8-8--8---8--7----------|
E|-9--9--------7-7--6-6---------0----------|

e|---------------------------------|
B|---------------------------------|
G|--------9-9------------10--10----|
D|-11-11--9-9--9-9--8-8--10--10----|
A|-11-11--7-7--9-9--8-8--8---8-----|
E|-9--9--------7-7--6-6------------|

e|--------------------------------------------------|
B|--------------------------------------------------|
G|-------------------------

See You In A Little While chords – Steven Curtis Chapman

 http://stevencurtischapman.com/

:  Matt Mink

I imagine that many people can relate to this song on some level. It's very special to
me and my family. Like Steven, we lost one of our children, and since then several of our
family members have gone to be with God. But these lyrics remind us of the hope we have 
in Christ - that one day we will join Him and our loved ones in Heaven again. Our time
here on Earth is short. We should use it the best we can. I tabbed this song by ear, so 
there may be some mistakes in the chords, but it works if you play along with the song.

Tuning:  Standard



VERSE 1:
 F C 
I hold your hand and watch as the sun slowly fades
 F C 
Far in the distance the Father is calling your name
          Am Bb 
And it's time for you to go home
          Am Bb 
And everything in me wants to hold on
         C G Am 
But I'm letting you go with this goodbye kiss
 Bb C 
and this promise



CHORUS:
       F Am 
I'll SEE you in a little while
       F Bb 
I'll SEE you in a little while
 Bb 
It won't be too long now
       F Am 
We'll SEE it on the other side
              F Bb 
The wait was only the blink of an eye
    Bb C 
So I'm not gonna say goodbye
             Bb C F  (if not going to bridge)
'Cause I'll SEE you in a little while



VERSE 2:
 F C 
And just one more thing before I let you go
 F 
Please tell my little girl I love her
                     C 
Though I'm sure she already knows
             Am Bb 
And ask the Father to please tell the Son
             Am Bb 
That we're ready and waiting for Him to come



[CHORUS]



BRIDGE:
 C Bb 
Maybe you'll teach me all the songs they sing in heaven
 C Bb 
Maybe you'll show me how you can fly
 C 
And I'll hear you laugh again
 Bb 
And we won't remember when
 G Bb C 
We were not together and this time it's forever


[CHORUS]

Christmas Time Again chords – Steven Curtis Chapman

 Intro:
 C# C#/A# C#/C C#/A#     (2xs)
 C# C#/C C#/A# C#/G#     (2xs)
 

 C#       
Christmas time is here

Come and celebrate the best time of the year
      D#m 
The jingle bells are ringing
          F# C# F#/G# 
And the carolers are singing their Christmas songs



  C# 
Christmas time has come

Can you hear the little drummer boy playing his drum?                        
      D#m F# C# 
And everywhere you go, somebody's wishing you a Merry Christmas
     F# 
And Mr. Cole is singing his chestnuts song
           Fm      
While we decorate the Christmas tree
      A#m D#                                             
And I'm still dreaming that a snowy white Christmas
   F# F#/G# 
Just might make it down to Tennessee



 C# 
And it's Christmas time again

Time to gather with your family and your friends
      D#m F#/G# 
And thank God for His gift of Love
        C# 
On Christmas


Instrumental Break:   C# C#/C C#/A# C#/G#  (2xs)
                      Dm# Dm# / C# Dm# / C C#/A# 
                     C# / / / / 


        F#         
And Grandma's baking her pumpkin pie
      Fm 
And her world famous casserole
     A#m D# 
The kids are playing games on the living room floor
           G# F#/G /#
And I'm waiting for my baby with some mistletoe


 C# 
And it's Christmas time again

Time to gather with your family and your friends
       D#m G#/F# 
And thank God for His gift of Love
               A#m D# 
We're gonna thank God for His gift of Love
  D#m F#/G#        ......
Thank God for His gift of Love 
         C# 
This Christmas


Instrumental Break:  C# C#/C C#/A# C#/G#   (2xs)

                                 
Out ro:      Ad-lib (with backup vocals)
 C# C#/C C#/A# C#/G#  
Hmm, It's Christmas time again
 C# C#/C C#/A# C#/G#  
Oh, it's Christmas time again
 C# C#/C C#/A# C#/G#  
Everybody, sing joy to the world, the Lord is come (Joy to the world)
 C# C#/C C#/A# C#/G#  
And let's thank God for His gift of Love this Christmas (Joy to the world)
 C# C#/C C#/A# C#/G#  
Hear the little drummer boy playing his drum 
 C# C#/C C#/A# C#/G#  
(Joy to the world) We're gonna thank God for His gift of love this Christmas (Joy to the world
 C# C#/C C#/A# C#/G#  
Singing joy to the world, the Lord is come

Significant Other chords – Steven Wilson

 Dmaj7 F 
Pullin back from the precipice
 Dmaj7 F Bmaj7 
Feel so small now, stars shine bright above
           Asus4 
Dont know why
                             Bmaj7 
Receive a better life for a song
          Asus4 
Cant but try, other leads apply

 Dmaj7 A C#m G# Cm G Bm F  (x2)

 Dmaj7 F Dmaj7  
Lookin up at tragic rush on underground
 F Bmaj7 
Birds will turn and fly
           Asus4 
Dont know why
                              Bmaj7 
Passin through the day, only child
           Asus4 
Breathe a sigh, other leads apply

 Dmaj7 F 
Raining all day, trying to reach you
 Dmaj7 F Bmaj7 
Feel so helpless, cant stop counting time (but in)
           Asus4 Bmaj7 
Dont know why, hands (something) stealin my heart
          Asus4 
Graceful dives, other leads apply* (rain down from the sky)

 Dmaj7 A C#m G# Cm G Bm F ...


 Dmaj7 : xx0222
 Bmaj7 : 224342
 Asus4 : x00220

Heaven Is The Face Chords – Steven Curtis Chapman

Capo 3

Intro
C

Verse 1:
C
Heaven is the face of a little girl
C                                            F
With dark brown eyes that disappear when she smiles.
C
Heaven is the place where she calls my name
C                                         F
Says, Daddy please come play with me for awhile. 

Chorus:
G                F               C
God, I know, its all of this and so much more,
    G                   F               C
But God, You know, that this is what Im aching for.
G                F                C
God, you know, I just can’t see beyond the door.
C
So right now... 

Verse 2:
C
Heaven is the sound of her breathing deep,
C                                              F
Lying on my chest, falling fast asleep while I sing.
C
And Heaven is the weight of her in my arms,
C                                                F
Being there to keep her safe from harm while she dreams 

Chorus:
    G                 F               C
And God, I know, it’s all of this and so much more,
    G                   F               C
But God, You know, that this is what Im longing for
G                F                C
God, you know, I just can’t see beyond the door. 

Bridge:
C
But in my minds eye I can see a place
           F
Where Your glory fills every empty space.
        G
All the cancer is gone, Every mouth is fed,
            C
And there’s no one left in the orphans bed.
      F
Every lonely heart finds their one true love,
           G
And theres no more goodbye, And no more not enough,
           C       F
And theres no more enemy (no more). 

Verse 3:
C
Heaven is a sweet, maple syrup kiss
C                                                  F
And a thousand other little things I miss with her gone.
C
Heaven is the place where she takes my hand
C                                              F
And leads me to You, And we both run into Your arms. 

Outro:
   G                F                 C
Oh God, I know, its so much more than I can dream.
     G          F          C
It’s far beyond anything I can conceive.
   G                 F              C
So God, You know, Im trusting You until I see
C
Heaven in the face of my little girl,
C
Heaven in the face of my little girl.