Tag: stones

Back Street Girl Tabs – The Rolling Stones Vsion 1

 BACK STREET GIRL

As recorded by The Rolling Stones
(From the 1967 Album FLOWERS)

Words and Music by Mick Jagger & Keith Richards

 Slowhand


Gtr I (D G C F A D) - 'Keith Richards - Acoustic Guitar (1 step down)'


   Intro
    Q=154
    E/A        D/A        A
   3/4
    Gtr I (Ac. Gtr. / 1 step down: D G C F A D) 
    Q  Q  Q    Q  Q  Q    E E E E E E   Q  Q  Q
||-----4-----|----2-----|-------5-----|----5--5--|
||o-------5--|-------3--|-----2---3-5-|----2--2--|
||-----------|----------|---2---------|----2--2--|
||-----------|----------|-------------|----2--2--|
||o-0--------|-0--------|-0-----------|-0--------|
||-----------|----------|-------------|----------|


  E           D           A
  E E Q  Q    E E Q  Q    E E E E E E   Q  E E Q
|-----0-----|-----------|---------5---|----5-5-5---||
|---0----0--|-----3-----|-----2-----3-|-2--2-2-2--o||
|-----------|---2----2--|-------------|----2-2-2---||
|-----------|-0---------|---2---2-----|----2-2-2---||
|-----------|-----------|-0-----------|-----------o||
|-0---------|-----------|-------------|------------||


   1st - 4th Verses
    $
    $$
    E/A        D/A        A
    Q  Q  Q    Q  Q  Q    E E E E E E   Q  Q  Q
||-----4-----|----2-----|-------5-----|----5--5--|
||o-------5--|-------3--|-----2---3-5-|----2--2--|
||-----------|----------|---2---------|----2--2--|
||-----------|----------|-------------|----2--2--|
||o-0--------|-0--------|-0-----------|-0--------|
||-----------|----------|-------------|----------|


  E           D           A
  E E Q  Q    E E Q  Q    E E E E E E   Q  E E Q
|-----0-----|-----------|---------5---|----5-5-5--|
|---0----0--|-----3-----|-----2-----3-|-2--2-2-2--|
|-----------|---2----2--|-------------|----2-2-2--|
|-----------|-0---------|---2---2-----|----2-2-2--|
|-----------|-----------|-0-----------|-----------|
|-0---------|-----------|-------------|-----------|


  E/A        D/A        A
  Q  Q  Q    Q  Q  Q    E E E E E E   Q  Q  Q
|----4-----|----2-----|-------5-----|----5--5--|
|-------5--|-------3--|-----2---3-5-|----2--2--|
|----------|----------|---2---------|----2--2--|
|----------|----------|-------------|----2--2--|
|-0--------|-0--------|-0-----------|-0--------|
|----------|----------|-------------|----------|


  E           D           A
  E E Q  Q    E E Q  Q    E E E E E E   Q  E E Q
|-----0-----|-----------|---------5---|----5-5-5--||
|---0----0--|-----3-----|-----2-----3-|-2--2-2-2--||
|-----------|---2----2--|-------------|----2-2-2--||
|-----------|-0---------|---2---2-----|----2-2-2--||
|-----------|-----------|-0-----------|-----------||
|-0---------|-----------|-------------|-----------||


 Pre-Chorus
  Bm            F#7/A#        Bm
  E E E E E E   E E E E E E   E E E E E E   E E E E E E
|-------2-----|-------0-----|-------2-----|-------2-----|
|-----3---3---|-----2---2---|---------3---|---------3---|
|---4-------4-|---3-------3-|-----4-----4-|-----4-----4-|
|-------------|-------------|---4---------|---4---------|
|-2-----------|-1-----------|-2-----------|-2-----------|
|-------------|-------------|-------------|-------------|


  C#m           D             A
  E E E E E E   E E E E E E   E E E E E E
|-------4-----|-------2-----|-------------|
|---------5---|-----3---3---|-------2-----|
|-----6-----6-|---2-------2-|-----2---2---|
|---6---------|-0-----------|---2-------2-|
|-4-----------|-------------|-0-----------|
|-------------|-------------|-------------|


  E
  Q  E E E E   Q  E E E E   Q  E E E E   Q  E E E E
|----0-0-0-0-|----0-0-0-0-|----0-0-0-0-|----0-0-0-0-||
|----0-0-0-0-|----0-0-0-0-|----0-0-0-0-|----0-0-0-0-||
|----1-1-1-1-|----1-1-1-1-|----1-1-1-1-|----1-1-1-1-||
|----2-2-2-2-|----2-2-2-2-|----2-2-2-2-|----2-2-2-2-||
|----2-2-2-2-|----2-2-2-2-|----2-2-2-2-|----2-2-2-2-||
|-0--0-0-0-0-|-0--0-0-0-0-|-0--0-0-0-0-|-0--0-0-0-0-||


 Chorus
  E/A        D/A        A
  Q  Q  Q    Q  Q  Q    E E E E E E   Q  Q  Q
|----4-----|----2-----|-------5-----|----5--5--|
|-------5--|------

Sympathy For The Devil Live chords – Rolling Stones

 Capo II


 D C         
Please allow me to introduce myself
       G D 
I'm a man of wealth and taste
 D C 
I've been around for a long, long year
 G D 
Stole many a man's soul and faith

 D C 
And I was 'round when Jesus Christ
         G D 
Had his moment of doubt and pain
                     C 
Made damn sure that Pilate
            G D 
Washed his hands and sealed his fate

 A                   
Pleased to meet you
                   D 
Hope you guess my name
            A 
But what's puzzling you
        G D 
Is the nature of my game

 D C 
I stuck around St. Petersburg
        G D 
When I saw it was a time for a change
                         C 
Killed the Czar and his ministers
     G D 
Anastasia screamed in vain

   D 
I rode a tank 
        C 
Held a general's rank
          G           
When the Blitzkrieg raged
         D 
And the bodies stank

 A                   
Pleased to meet you
                   D 
Hope you guess my name
            A 
But what's puzzling you
        G D 
Is the nature of my game
   D 
I watched with glee
            C 
While your kings and queens
            G 
Fought for ten decades
         D 
For the Gods they made

   D 
I shouted out
                 C 
"Who killed the Kennedys?"
      G 
When after all
        D 
It was you and me

 D C 
Let me please introduce myself
       G D 
I'm a man of wealth and taste
                      C 
And I laid traps for troubadours
         G D 
Who get killed before they reached Bombay 

 A                   
Pleased to meet you
                   D 
Hope you guess my name
            A 
But what's puzzling you
        G D 
Is the nature of my game
oh yeah, get down, baby

solo (play D C G D in background)

 A                   
Pleased to meet you
                   D 
Hope you guess my name
            A 
But what's puzzling you
        G D 
Is the nature of my game

         D C 
Just as every cop is a criminal
     G D 
And all the sinners saints

As heads is tails
              C 
Just call me Lucifer
               G D 
'Cause I'm in need of some restraint

 D 
So if you meet me
           C 
Have some courtesy
           G D 
Have some sympathy, and some taste
                              C 
Use all your well-learned politesse
         G D 
Or I'll lay your soul to waste, um yeah

 A                   
Pleased to meet you
                   D 
Hope you guess my name
            A 
But what's puzzling you
        G D 
Is the nature of my game
um baby, get down

(Continue D C G D in background to end)

Woo, who
Oh yeah, get on down
Oh yeah
Oh yeah!
Tell me baby, what's my name
Tell me honey, baby guess my name
Tell me baby, what's my name
I tell you one time, you're to blame
Ooo, who
Ooo, who
Ooo, who
Ooo, who, who
Ooo, who, who
Ooo, who, who
Ooo, who, who
Oh, yeah
What's my name
Tell me, baby, what's my name
Tell me, sweetie, what's my name
Ooo, who, who
Ooo, who, who
Ooo, who, who
Ooo, who, who
Ooo, who, who
O

Sweet Virginia Tabs by Rolling Stones V4

 Sweet Virginia (Mick Jagger/Keith Richards)
The Rolling Stones
Exile on Main St. - 1972
 Leonardo Barcellos

Capo 2nd fret

INTRO
         G           D             G
e|-------3-3-3-------2-2-2---------3-3-3---------3-3-3-|
B|-----0-0-0-0-------3-3-3---------0-0-0---------0-0-0-|
G|---0---0-0-0-----0-2-2-2---2---0-0-0-0---0---0-0-0-0-|
D|-0-----0-0-0-0h2---0-0-0---------0-0-0---------0-0-0-|
A|-------2-2-2-----------------3---2-2-2-3---2---2-2-2-|
E|-------3-3-3-------------2-------3-3-3---------3-3-3-|

2x

           C             A7            G   
e|---------0-0-0---------0-0-0---------3-3-3-3-|
B|---------1-1-1---------2-2-2---------0-0-0-0-|
G|---0---0-0-0-0---0---0-0-0-0---0---0-0-0-0-0-|
D|---------2-2-2---------2-2-2---------0-0-0-0-|
A|-0---2---3-3-3-3---2---0-0-0---------2-2-2-2-|
E|-----------------------------0---2---3-3-3-3-|


           C             A7            G
e|---------0-0-0---------0-0-0---------3-3-|
B|---------1-1-1---------2-2-2---------0-0-|
G|---0---0-0-0-0---0---0-0-0-0---0---0-0-0-|
D|---------2-2-2---------2-2-2---------0-0-|
A|-0---2---3-3-3-3---2---0-0-0---------2-2-|
E|-----------------------------0---2---3-3-|

             C               G               D           G       
e|-------------0-0-------------3-3-------------2-2---------3-3---------3-3---------|
B|-------------1-1-------------0-0-------------3-3---------0-0---------0-0---------|
G|-----0-----0-0-0-----0-----0-0-0-----0-----0-2-2---2---0-0-0---0---0-0-0---0---0-|
D|-------0h2---2-2-0h2---0h2---0-0-------0h2---0-0---------0-0---------0-0---------|
A|-0h2---------3-3-------------2-2-0h2-----------------0---2-2-3---2---2-2-0---2---|
E|-----------------------------3-3-----------------0-------3-3---------3-3---------|

C                      A7          G
Wading through the waste stormy winter
C                    A7                 G
And there's not a friend to help you through
C                      A7               G     C 
Trying to stop the waves behind your eyeballs
G              D                        G
Drop your reds drop your greens and blues

C                     A7        G
Thank you for your wine, California
C                    A7               G
Thank you for your sweet and bitter fruits
C                    A7          G     C
Yes, I've got the desert in my toenail
G            D              G   
And hid the speed inside my shoe

C                       A7          G
But come on come on down Sweet Virginia
C                  A7         G
Come on honey child I beg of you
C                   A7           G     C
Come on come on down you got it in you
G                  D                   G
Got to scrape that shit right off your shoes


Sax solo: C A7 G C A7 G C A7 G C G D G


C                       A7          G
But come on come on down Sweet Virginia
C                  A7         G
Come on honey child I beg of you
C                   A7           G     C
Come on come on down you got it in you
G                  D                   G
Got to scrape that shit right off your shoes

One more time!

C                       A7          G
But come on come on down Sweet Virginia
C                  A7         G
Come on honey child I beg of you
C                   A7           G     C
Come on come on down you got it in you
G                  D                   G
Got to scrape that shit right off your shoes



Tab by Leonardo Barcellos
leonardobarcellosmarques@hotmail.com

Beast Of Burden chords – Rolling Stones V4

 Intro: ( E B/D# - C#m A ) x4

 E B/D# -  C#m A E B /D# - C#m A 
I'll never be your beast of burden, my back is broad but it's a hurting 
 E B/D# - C#m A E B - C#m A 
All I want is for you to make love to me
 E G#m7 A E G#m7 A 
I'll never be your beast of burden, I've walked for miles, my feet are hurting
 E G#m7 A E G#m7 A 
All I want is for you to make love to me 

       A E/G# A E/G# B 
Am I hard enough? am I rough enough? am I rich enough? I'm not too blind to see 

 E B/D# -  A E G#m7 A 
I'll never be your beast of burden, so let's go home, and draw the curtains 
 E G#m7 A E G#m7 A 
Music on the radio, come on baby make sweet love to me 

       A E/G# A E/G# B 
Am I hard enough? am I rough enough? am I rich enough? I'm not too blind to see 

 E B/D# -  C#m A     ( E B /D#- C#m A ) x3
Oh, pretty, pretty, pretty, pretty, pretty, girls
            E B/D# C#m A 
You're a pretty, pretty, pretty, pretty, pretty, girl 
  E G#m7 A 
Pretty, pretty, such a pretty, pretty, pretty girl 
  E G#m7 A E G#m7 A 
Come on baby please, please, please 
                        E B/D# - C#m A E B /D#- C#m A 
I'll tell ya, you can put me out,       on the street, put me out, with no shoes on my feet 
       E B/D# - C#m A E B /D#- C#m A 
But, put me out, put me out, put me out of misery 
        E B/D# - A E G#m7 A 
Yeah, all your sickness I can suck it up, throw it all at me, I can shrug it off 
  E G#m7 A E G#m7 A 
There's one thing baby, that I don't understand, you keep on telling me I ain't your kind of man 
           E B/D# - C#m A E B /D#- C#m A 
Ain't I rough enough? ooh,   ain't I tough enough?
           E B/D# - C#m A E B /D#- C#m A 
Ain't I rich enough in love enough?

 E G#m7 A E G#m7 A 
I'll never be your beast of burden, I'll never be your beast of burden 
 E G#m7 A E G#m7 A 
Never, never, never, never, never, never, never be  
 E B/D#  -   C#m A E B/D# - C#m A 
I'll never be your beast of burden, I've walked for miles, my feet are hurting
 E B/D# - C#m A E B /D#- C#m A 
All I want is for you to ma

Stepping Stones Tabs by Catchingyourclouds

 Capo 5th

 Intro = 
 
 |---3-3-3-3----3-3-3|3----3-3-3-3----3-|3-3-3--------------|
 |---3-3-3-3----3-3-3|3----3-3-3-3----3-|3-3-3---It-the-----|
 |---0-0-0-0----0-0-0|0----0-0-0-0----0-|0-0-0----same------|(x4)
 |---2-2-2-2----4-4-4|4----2-2-2-2----0-|0-0-0--chord-with--|
 |---3-3-3-3----5-5-5|5----2-2-2-2----2-|2-2-2--the-piano---|
 |---0-0-0-0----x-x-x|x----0-0-0-0----3-|3-3-3--------------|
  
 Verse  =

 |---3---3---3---3---|
 |---3---3---3---3---|
 |---0---0---0---0---|(x2)
 |---0---3---4---2---|
 |---2---2---5---2---|
 |---3---0---x---0---|

 Pre Chorus =

 |---3-3-3-3----3-3-3|-3----3-3-3-3----3-|3-3-3--------------|
 |---3-3-3-3----3-3-3|-3----3-3-3-3----3-|3-3-3--I-Know-it---|
 |---0-0-0-0----0-0-0|-0----0-0-0-0----0-|0-0-0---is-the-----|
 |---0-0-0-0----4-4-4|-4----2-2-2-2----0-|0-0-0--same-like---|
 |---2-2-2-2----5-5-5|-5----2-2-2-2----2-|2-2-2--the-intro---|
 |---3-3-3-3----x-x-x|-x----0-0-0-0----3-|3-3-3--------------|

 |---3-----3-----3---|--3----xxxxx-----|
 |---3-----3-----3---|--3----xxxxx-----|
 |---0-----0-----0---|--0----xxxxx-----|
 |---2-----4-----2---|--4----xxxxx-----|
 |---3-----5-----3---|--5----xxxxx-----|
 |---0-----x-----0---|--x----xxxxx-----| 

 Chorus = 

 |---3-3-3-3----3-3-3|-3----3-3-3-3----3-|3-3-3-|
 |---3-3-3-3----3-3-3|-3----3-3-3-3----3-|3-3-3-|
 |---0-0-0-0----0-0-0|-0----0-0-0-0----0-|0-0-0-|(x4)
 |---2-2-2-2----0-0-0|-0----4-4-4-4----2-|2-2-2-|
 |---3-3-3-3----2-2-2|-2----5-5-5-5----2-|2-2-2-|
 |---0-0-0-0----3-3-3|-3----x-x-x-x----0-|0-0-0-|

 Return To Intro(x2)

 Return To Verse(x2)
 
 Return To Chorus(x4)

 Bridge the same like the intro 

 And finish with = 
 
 Cadd9 Dsus4 Em G

April Or Nil – Time To Gather Stones Tabs V2

 ------------------------ ------------------------|
------------------------ ------------------------|
------------------------ ------------------------|
10-10-9-9-10-10-10------ 10-10-9-9-10-10-10------|
-------------------0---- ------------------------|
------------------------ -------------------8----|

------------------------ ------------------------|
------------------------ ------------------------|
------------------------ ------------------------|
12-12-10-10-12-12-12---- 12-12-12-12\10-9--------|
---------------------8-- -----------------10-0---|
------------------------ ------------------------|

------------------------ -------------------------|
------------------------ -------------------------|
----------------------12 ----------------------10-|
10-10-9-9-10-10-10------ 10-10-9-9-10-10-10-------|
-------------------0---- -------------------------|
------------------------ -------------------8-----|

------------------------- ------------------------|
------------------------- ------------------------|
-----------------------10 ----------------------9-|
12-12-10-10-12-12-12----- 12-12-12-12\10-9--------|
---------------------8--- -----------------10-0---|
------------------------- ------------------------|

--------------------------------------------------|
----------------------------3-6-5------5-6-3------|
----4-5-4-------4-5-4-----------------------------|
--5-------5---5-------5---5-------5--5-------5----|
0-----------0-----------0-----------0-------------|
--------------------------------------------------|
                                                     x2
-------------------------------------------3--3---|
----------------------------3-6-5------5-6--------|
----4-5-4-------4-5-4-----------------------------|
--5-------5---5-------5---5-------5--5-------5--5-|
0-----------0-----------0-----------0-------------|
--------------------------------------------------|

--5----7-------8--------10-8-7-------------------------|
----5----5---5---5---5---------------------8---------8-|
------5----5-------5-----------9---10--------10----10--|
--------------------------------------10--------10-----|
0--------------------------------8-------8-------------|
-------------------------------------------------------|

--------------------------------------------------------|
--5-----6-----8-----6---------------8-6-5---------------|
----7-----7---------------------7-----------------------|
------7-----7---7-----7---7---7---7-----------7-----7---|
5-----------------5-----5---5-------------------7-----7-|
-----------------------------------------8\5-----5------|

--------------------------5-----7-------8-------12-10-8--|
----------------------------5-----5---5---5---5----------|
------------4h5---------------5-----5-------5----------9-|
--7---7---------7----------------------------------------|
--------7---------7-0------------------------------------|
5---5-----5-----------1/5--------------------------------|

----------------------8---------------8-----7-----------|
-----------8--------------5-----6-------6-----6---6-----|
--10----10---10----10-------7-----7-------5-----5-------|
-----10---------10------5-----7-----7-------------------|
8-------------------------------------------------------|
--------------------------------------------------------|

--------8-7-8/10----------------------------------------|
-------------------10-----10---------10-----10----------|
----7-----------------9------9---9------9------9---9----|
--7---7-------------------------------------------------|
5----------------0------0------0---0------0------0------|
--------------------------------------------------------|

--------------------------------------------------------|
--10-----10---------10-----10/12------------------------|
-----9------9---9------9---------9----------------------|
--------------------------------------------------------|
0------0-----

April Or Nil – Time To Gather Stones Tabs

 ------------------------ ------------------------|
------------------------ ------------------------|
------------------------ ------------------------|
10-10-9-9-10-10-10------ 10-10-9-9-10-10-10------|
-------------------0---- ------------------------|
------------------------ -------------------8----|

------------------------ ------------------------|
------------------------ ------------------------|
------------------------ ------------------------|
12-12-10-10-12-12-12---- 12-12-12-12\10-9--------|
---------------------8-- -----------------10-0---|
------------------------ ------------------------|

------------------------ -------------------------|
------------------------ -------------------------|
----------------------12 ----------------------10-|
10-10-9-9-10-10-10------ 10-10-9-9-10-10-10-------|
-------------------0---- -------------------------|
------------------------ -------------------8-----|

------------------------- ------------------------|
------------------------- ------------------------|
-----------------------10 ----------------------9-|
12-12-10-10-12-12-12----- 12-12-12-12\10-9--------|
---------------------8--- -----------------10-0---|
------------------------- ------------------------|

--------------------------------------------------|
----------------------------3-6-5------5-6-3------|
----4-5-4-------4-5-4-----------------------------|
--5-------5---5-------5---5-------5--5-------5----|
0-----------0-----------0-----------0-------------|
--------------------------------------------------|
                                                     x2
-------------------------------------------3--3---|
----------------------------3-6-5------5-6--------|
----4-5-4-------4-5-4-----------------------------|
--5-------5---5-------5---5-------5--5-------5--5-|
0-----------0-----------0-----------0-------------|
--------------------------------------------------|

--5----7-------8--------10-8-7-------------------------|
----5----5---5---5---5---------------------8---------8-|
------5----5-------5-----------9---10--------10----10--|
--------------------------------------10--------10-----|
0--------------------------------8-------8-------------|
-------------------------------------------------------|

--------------------------------------------------------|
--5-----6-----8-----6---------------8-6-5---------------|
----7-----7---------------------7-----------------------|
------7-----7---7-----7---7---7---7-----------7-----7---|
5-----------------5-----5---5-------------------7-----7-|
-----------------------------------------8\5-----5------|

--------------------------5-----7-------8-------12-10-8--|
----------------------------5-----5---5---5---5----------|
------------4h5---------------5-----5-------5----------9-|
--7---7---------7----------------------------------------|
--------7---------7-0------------------------------------|
5---5-----5-----------1/5--------------------------------|

----------------------8---------------8-----7-----------|
-----------8--------------5-----6-------6-----6---6-----|
--10----10---10----10-------7-----7-------5-----5-------|
-----10---------10------5-----7-----7-------------------|
8-------------------------------------------------------|
--------------------------------------------------------|

--------8-7-8/10----------------------------------------|
-------------------10-----10---------10-----10----------|
----7-----------------9------9---9------9------9---9----|
--7---7-------------------------------------------------|
5----------------0------0------0---0------0------0------|
--------------------------------------------------------|

--------------------------------------------------------|
--10-----10---------10-----10/12------------------------|
-----9------9---9------9---------9----------------------|
--------------------------------------------------------|
0------0-----