Tag: strange

Life Is Strange – End Credits Max And Chloe Tabs – Misc Computer Games

 -------------------------------------------------------------------------------
                        Jonathan Morali - End Credits (Life Is Strange)
-------------------------------------------------------------------------------
: Marta Mayer

After releasing my set of covers on YouTube (https://www.youtube.com/watch?v=waY8jaL-3Es), many 
people asked for tutorials or tabs for particular songs. So here you are, here is the wonderful 
music that can be heard in the end of the game! This tab is obviously not for the melodic line, 
but for the accompanying guitar (in my vid it's the upper screen). I warn you, it's not 
the easiest song. I tried to tab it in the simpliest way possible, but please - do read 
carefully, before giving up :)

Tip: The best fingers positions for the first two chords are like this:
pinkie finger: A string, 5th fret 
ring finger: D string, 4th fret
index finger: G string, 2nd fret
middle finger: B string, 3rd fret

Tuning: Standard

Position 1 (0:00 - 0:20)

e|------------------------------------------------------------------------------------------------------|
B|----------------3----------------------3-------------------------3-------------------------3----------|
G|-------------------2------2-----2----------2-----------2-----2-------2------------2-----2-------2-----|
D|------4------4---------------------4-----------4--------------------------4-------------------------4-|
A|--5------5------------5-------5--------------------5------5--------------------5------5---------------|
E|------------------------------------------------------------------------------------------------------|

Now, here comes the first change.
Position 2 (0:20 - 0:24)
Tip: The position is very similar to the first one. All you have to do, is to move your index finger to 
the E string, 3rd fret.

e|----------------------------------------------------------------------------|
B|---------------3-----------------------3------------------------------------|
G|-----0-------------0----------0--------------0------------------------------|
D|-----------4-----------4------------4---------------4-----------------------|
A|----------------------------------------------------------------------------|
E|--3-----3------------------3----3-------------------------------------------|

And then go back to position 1. 

Here comes the 3rd position (basically the Em chord)(in the song it's on 1:01)

e|------------------0---------------------------------------------------------|
B|----------------------0-----------------------------------------------------|
G|----------0---------------0-------------------------------------------------|
D|------2-------2---------------2---------------------------------------------|
A|----------------------------------------------------------------------------|
E|---0------------------------------------------------------------------------|

And right after is the 4th position (it's Bm barre chord) (1:03 approximately)

e|------------------------2---------------------------------------------------|
B|-----------------------------2----------------------------------------------|
G|---------3------------------------3-----------------------------------------|
D|-------------------4-------------------4------------------------------------|
A|----------------------------------------------------------------------------|
E|----2---------2-------------------------------------------------------------|

AND THEN SWITCH TO POSITION 1 AGAIN.


Now, I don't play this part in my video since I cut it out accidentally, but in case you want to continue 
with the song (and obviously you do), the chords are basically the same, until 2:13.

5th position (G chord, but the barre version) (it comes roughly on 2:14)

e|---------------------------------------------------------------------------------|
B|-----------------------3-------------------------------------------3-------------|
G|----------------------------4--------------

Strange Dreams intro Tabs by Red Lorry Yellow Lorry

 -------------------------------------------------------------------------------
                    Strange Dreams - Red Lorry Yellow Lorry
-------------------------------------------------------------------------------

: Maya L T 

Tuning: Standard


e|---------------------------------------------------------------------------|
B|---------------------------------------------------------------------------|
G|-----------5---7-----------------------------------------------------------|
D|-------7---------------7---9---10---9---5----------------------------------|
A|---5---------------5-------------------------------------------------------|
E|---------------------------------------------------------------------------|

This bit is played over the top.

e|---------------------------------------------------------------------------|
B|---------------------------------------------------------------------------|
G|---(7)---9-h-10-p-9--------7-------9---10---9--------7---------------------|
D|----------------------10-------8----------------10-------------------------|
A|---------------------------------------------------------------------------|
E|---------------------------------------------------------------------------|


That's the intro


************************************
| h   hammer-on
| p   pull-off
************************************

Strange Brew chords – Cream V3

 Artist: Cream
Song: Strange brew
 Disraeli Gears
: DJ
8th Oct 2014

Chords:
 A   = 577655     E7#9  = x7678x     A9  = x05450
 D9  = x5455x     D7#9  = x5456x

Riffs:
           A D9 
e |-------5----------------|    e |------------------------|
B |-------5----------------|    B |-------5----------------|
G |-------6----------------|    G |-------5----------------|
D |-------7-------5--5-h7--|    D |-------7-------5--5-h7--|
A |-------7--5-h7----------|    A |--5-5-----5-h7----------|
E |--5-5-------------------|    E |------------------------|

          E7#9 D7#9 
e |------------------------|    e |------------------------|
B |-------8----------------|    B |-------6----------------|
G |-------7----------------|    G |-------5----------------|
D |-------6-------5--5-h7--|    D |-------4-------5--5-h7--|
A |--7-7-----5-h7----------|    A |--5-5-----5-h7----------|
E |------------------------|    E |------------------------|

*************************************************************

[Intro]
    A 
|  /  /  /  /  |  /  /  /  /  |  /  /  /  /  |  /  /  /  /  |

    D9 A 
|  /  /  /  /  |  /  /  /  /  |  /  /  /  /  |  /  /  /  /  |

   E7#9 D7#9 A 
Strange brew, killin' what's inside of you------!


[Verse 1]
           A D9 
She's a witch of trouble in e - lectric blue,
         A A D9 
In her own mad mind, she's in love with you,  ...with you!
 D9 A 
     Now, what'cha gonna do?
   E7#9 D7#9 A 
Strange brew, killin' what's inside of you------!


[Verse 2]
         A D9 
She's some kind of demon messin' in the glue,
         A A D9 
If you don't watch out it'll stick to you,  ...to you!
 D9 A 
     What kind of fool are you?
   E7#9 D7#9 A 
Strange brew, killin' what's inside of you------!


[Verse 3 -instrumental]
    A 
|  /  /  /  /  |  /  /  /  /  |  /  /  /  /  |  /  /  /  /  |

    D9 A 
|  /  /  /  /  |  /  /  /  /  |  /  /  /  /  |  /  /  /  /  |

   E7#9 D7#9 A 
|  /  /  /  /  |  /  /  /  /  |  /  /  /  /  |  /  /  /  /  |


[Verse 4]
        A D9 
On a boat in the middle of a raging sea,
            A A D9 
She would make a scene for it all to be ...ig - nored,
 D9 A 
     And wouldn't you be bored?
   E7#9 D7#9 A 
Strange brew, killin' what's inside of you------!


[Coda]
     A D9 A D9 D7#9 
Strange brew,    strange brew, strange brew,    strange brew,
   E7#9 D7#9 A 
Strange brew, killin' what's inside of you-----!

                                                        A9 
e |---------5--------------------------|---------------0---||
B |---b5--5---5--5-8-p5----------------|------8--------5---||
G |----------------------9\7--5-h7-p5--|--7/9---9\7----4---||
D |------------------------------------|---------------5---||
A |------------------------------------|---------------0---||
E |--5---------------------------------|-------------------||

Strange Way To Save The World chords – 4him

 Strange Way to Save the World
4Him

 C Dsus D G/B C C Dsus D G/B C C D7 C/E G Dsus  -  D 
I'm sure he must have been surprised at where this road had taken him
                   C D7 C/E G Dsus  -  D 
'Cause never in a million lives would he have dreamed of Bethlehem
     G/B C D/F# G D/F# 
And standing at the manger, He saw with his own eyes
     Em A7 Am7 D7 
The message from the angel come to life and Joseph said
    G D/F# Em G/D 
Why me, I'm just a simple man of trade
    C G/B Am7 D7 
Why Him, with all the rulers in the world
    G D/F# Em G/D 
Why here, inside this stable filled with hay
    C G/B Am7 D7 B7 
Why her, she's just an ordinary girl
      Em B7 G/D A7 
Now I'm not one to second guess what angels have to say
                    Am7 D7 C   
But this is such a strange way to save the world

 Dsus  -  D G/B C C D7 C/E G Dsus  -  D 
To think of how it could have been, if Jesus had come as He deserved
                         C D7 C/E G Dsus  -  D 
There would have been no Bethlehem, No lowly shepherds at His birth
     G/B C D/F# G D/F# 
But Joseph knew the reason love had to reach so far
     Em A7 Am7 D7 
And as he held the Savior in his arms, he must have thought
     G D/F# Em G/D 
Why me, I'm just a simple man of trade
    C G/B Am7 D7 
Why Him, with all the rulers in the world
    G D/F# Em G/D 
Why here, inside this stable filled with hay
    C G/B Am7 D7 B7 
Why her, she's just an ordinary girl
      Em B7 G/D A7 
Now I'm not one to second guess what angels have to say
                    Am7 D7 G  
But this is such a strange way to save the world

 D/F# Em D C G/B Am7 D7 B7 
       Whoa, Whoa, Whoa, Whoa
 
      Em B7 G/D A7 
Now I'm not one to second guess what angels have to say
                    Am7 D7 G 
But this is such a strange way to save the world

 D/F# Em Am7 D7   
     This is such a strange way
   Am7 D7   
A strange way
   Am7 D7 C   
A strange way to save the world

 D7 G/B C C D G/B C D/F# G

Strange Face Of Love Tabs by Tito And Tarantula

 E|---------------------------|
H|---------------------------|
G|---------------------------|    x2
D|------------2--------------|
A|----2-------0---1---2------|
E|----0---3------------------|

E|---------------------------|
H|---------------------------|    
G|------------2--------------|
D|----2-------0---1---2------|
A|----0---3------------------|
E|---------------------------|

E|---------------------------|
H|---------------------------|
G|---------------------------|    
D|------------2--------------|
A|----2-------0---1---2------|
E|----0---3------------------|


ojka
guitaronline.pl

Soldiers Get Strange chords – Jason Isbell

 Jason Isbell - Soldiers Get Strange

Intro:  Em  –  C  –  D   x4  (fourth time, hold  C )

I play it starting on 7th fret, drop the G on B string once, like this:

   Em C D 
e--7--7--7--3----5--
B--8--7--8--5----7--
G--9--9--9--5----7--
D--9--9--9--5----7--
A--7--7--7--3----5--
E--x--x--x--x----x--

Rest of the song I play normally, i.e. Em is 022000


      G G/F C G G/F C 
You want her to try new things.  She reminds you she wears your ring.
      G G/F C G G/F C 
And after a couple o’ drinks, she's a little scared of you.
    G G/F C G G/F C 
A good friend is hard to find.  You wish you could spend more time
 G G/F C G G/F C 
towing civilian lines, but they're all scared of you.
                 Em Em/F# G 
  It's not the time that makes it  go   bad
                 Em Em/F# G 
  It's not the thought of what you could've had
                Em Em/F# G 
  It's not the way that her figure  has  changed
         G G/F C      (hold)
  It's just that a soldier gets strange

You know she's a real good girl.  She reminds you that every curl
that whips in the wind of the world, is watched by the eyes of God.

But lately your mane's gone white.  You itch in your veins in the night.
Before you "came home alright" you wielded the lightning rod.

  It ain't the time that makes it go South
  It ain't the liquor that burns in your mouth
  Nearly nothing around here's changed
  It's just that a soldier gets strange
           C Em 
     She turns off the lights so you can't see her body
           C Em 
     You can't make her fight when you know that you're wrong
            C Em 
     They call you a hero, so many still fighting
       G G/F C      (hold)
     This ain't where you belong

[Instrumental]:   G G/F C   x3

Maybe you'll re-enlist.  It couldn't be worse than this.
But think of the things you'll miss, if you're inside the wire again

  It's not the dreams that keep you up late
  It's not the world you saw incinerate
  It's not the way that her figure has changed
  It's just that a soldier gets strange
    G G/F C      (hold)
  Most of all you got strange 


[Intro chords just like the start]

Family Guy – I Cant Poop In Strange Places chords – Misc Television V2

 Am 
Peter: I can't poop in strange places

Quagmire: Strange places
              Em 
Peter: I can only poop in my home
         G 
It's as though I'm watched by strange faces

Quagmire: Strange faces
            Am 
Peter It's why I never roam

Peter: I've left Stewie alone with strangers

Quagmire: Strangers...
            Em 
Peter: To satisfy my fecal needs...
                G 
Together: I've put my whole family in danger
     Am 
To poop before my anus bleeds
 F C 
Home bowl, home bowl
 G Am 
You know just what I need
 F C 
Home bowl, home bowl
 G Am 
Poop before my anus bleeds

Pure Evil Tabs by Baby Strange

 Intro
e|-------------------------------------------------------------------------|
B|-------------------------------------------------------------------------|
G|-------------------------------------------------------------------------|
D|-5-7--(13-12-10-7-5-7)x 4------------------------------------------------|
A|-------------------------------------------------------------------------|
E|-------------------------------------------------------------------------|

Verse and Chorus follow same pattern with slightly different rhythm:


     A   C   B   G   A
e|-------------------------------------------------------------------------|
B|-------------------------------------------------------------------------|
G|-------5-----------------------------------------------------------------|
D|---7---5---4---5---7-----------------------------------------------------|
A|---7---3---4---5---7-----------------------------------------------------|
E|---5-------2---3---5-----------------------------------------------------|

Riff at 02:17

e|-------------------------------------------------------------------------|
B|-------------------------------------------------------------------------|
G|-------------------------------------------------------------------------|
D|-------------------------------------------------------------------------|
A|------3-3-----3-3----3-2-------------------------------------------------|
E|--5-5-----5-5----5-5-----3-3---------------------------------------------|

Family Guy – I Cant Poop In Strange Places chords

 From the episode "Into Harmony's Way" (season 12).

 Am 
I can't poop in strange places

(Strange places)
       Em 
I can only poop in my home
         G 
It's as though I'm watched by strange faces

(Strange faces)
      Am 
It's why I never roam

I've left Stewie alone with strangers

(Strangers...)
    Em 
To satisfy my fecal needs...
      G 
I've put my whole family in danger
    Em 
To poop before my anus bleeds
 F C 
Home bowl, home bowl
 G Am 
You know just what I need
 F C 
Home bowl, home bowl
 G Am 
Poop before my anus bleeds 

Life Is Strange chords – T Rex V2

 #-------------------------------PLEASE NOTE-------------------------------------#
# This file is the author's own work and represents their interpretation of the #
# song. You may only use this file for private study, scholarship, or research. #
#-------------------------------------------------------------------------------#
Life Is Strange chords
T. Rex 1973 (Tanx / Marc Bolan)*

 C C Am C Am C Am 
Strange, life is strange, life is strange,
    G Am C G 
Oh life is strange. 

 C Am 
O God, life is strange, 
 D D7 
People come and people go, 
 D D7 G 
Some move fast and some move slow,
                 C G 
No, no, no, no, no. 

 C Am 
O God, life is good, 
 D D7 
Some are fat and some are thin,
 D D7 G 
Some don't even ask you how you've been,
                 C G 
No, no, no, no, no. 

 C Am C Am C Am 
Strange, life is strange, life is strange,
    G Am C G 
Oh life is strange. 

 C Am 
O God, life is good, 
 D D7 
Some are fat and some are thin,
 D D7 G 
Some don't even ask you how you've been,
                 C G 
No, no, no, no, no. 

 C Am 
O God, life is strange, 
 D D7 
Some are fast and some are slow,
 D D7 G 
Some believe and don t even know
                 C G 
No, no, no, no, no. 

 C Am C Am C Am 
Strange, life is strange, life is strange,
       G C    
Oh my life is strange. 

*Alternate:

Capo III

 C   =  A G   =  E Am  =  F#m D   =  B D7  =  B7 

Set8

Strange chords – Tori Amos V2

 Capo 3 (an easier version of the one already tabbed for those who have trouble with bar chords)

 Em G D 
Strange, thought I knew you well

 Am Em 
Thought I had read the sky 

               G A 
Thought I had read a change in your eyes

    Em G D 
So strange, woke up to a world

 Am Em G A 
That I am not apart of except when I can play it stranger

 C 
After all, what were you really looking for?

                D G 
And I wonder, "When will I learn?"

 C 
Blue isn't red, everybody knows this

                D G 
And I wonder, "When will I learn?"

                A# G# 
Guess I was in deeper than I thought I was

G                   -no chord-
If I had enough love for the both of us

      Em G D 
Just stay, you said we'll build a nest

     Am Em 
So I left my life tried on your friends

 G A 
Tried on your opinions

    Em G D 
So when the bridges froze and you

 Am 
Did not come home

   Em G A 
I put our snowflake under a microscope

 C 
After all, what was I really looking for?

                D G 
And I wonder, "When will I learn?"

 C 
Maybe my wish knew better than I did

                D G 
And I wonder, "When will I learn?"

 D G 
When will I learn?

                A# G# 
Guess I was in deeper than I thought I was

G                    -no chord-
If I had enough love for the both of us

    Em G D 
So strange, now I'm finally in

 Am Em G A 
The party has begun, it's not like I can't feel you still

     Em G D 
But strange, what I'll leave behind

 Am Em G A      (end on  Em , if you want)
Call me one more time, but now I must be leaving

Strange Birds chords – Birdy

 Hey there, this is my first tab/chord submission.
It has been taken directly from the sheet music, so its definitely accurate. I've 
done my best to place the timing correctly, but if you're still in doubt, just 
take a listen of the original.
Enjoy! And feel free to leave any feedback if you'd like. :)


"Strange Birds"

[Verse 1]

 Gm Gm/F 
Little ghost, you are listening,
                                Eb 
Unlike most you don’t miss a thing,
                  Cm Dsus4 D 
You see the truth,
 Gm Gm/F 
I walk the halls invisibly,
                                Eb 
I climb the walls, no one sees me,
               Cm Dsus4 D 
No one but you.

[Chorus]

 Gm                                 
You’ve always loved the strange birds
 Gm/F Eb 
Now I want to fly into your world
                  Cm Dsus4 D 
I want to be heard
 Gm 
My wounded wings still beating,
 Gm/F Eb Cm 
You’ve always loved the stranger inside…
     Dsus4 D 
Me, ugly pretty.
 Gm 
Oh no, no, no, no
 Gm/F 
Oh no, no, no, no
 Eb 
Oh no, no, no, no
 Cm Dsus4 D 
  Oh


[Verse 2]


 Gm Gm/F 
Oh little ghost, you see the pain
                 Eb Cm Dsus4 D 
But together we can make something beautiful,
 Gm 
So take my hand and perfectly,
 Gm/F Eb 
We fill the gaps, you and me make three,
                                  Cm Dsus4 D 
I was meant for you, and you for me.


[Chorus]

 Gm                                 
You’ve always loved the strange birds
 Gm/F Eb 
Now I want to fly into your world
                  Cm Dsus4 D 
I want to be heard
 Gm 
My wounded wings still beating,
 Gm/F Eb Cm 
You’ve always loved the stranger inside…
     Dsus4 D 
Me, ugly pretty.
 Gm 
Oh no, no, no, no
 Gm/F 
Oh no, no, no, no
 Eb 
Oh no, no, no, no
 Cm Dsus4 D 
  Oh

[Final Chorus]

 Gm                                 
You’ve always loved the strange birds
 Gm/F Eb 
Now I want to fly into your world
                  Cm Dsus4 D 
I want to be heard
 Gm 
My wounded wings still beating,
 Gm/F Eb Cm 
You’ve always loved the stranger inside…
     Dsus4 D Gm 
Me, ugly pretty.

Is it strange – Hey chords

P. Banach / K. Nosowska


Wstep:(gitara solowa - przez caly czas)
 4/
 /4
   h7            G7+                 h7            G7+
   VII           X                   VII           X
E|---------------------------------|------------------------10-------|
H|-----10-----10----------12-------|-----10-----10-------------12----|
G|---------------------11----11----|---------------------11-------11-|
D|---9------9-------12----------12-|---9------9-------12-------------|
A|--------9------10----------------|--------9------10----------------|
E|-7-------------------------------|-7-------------------------------|
   __3___ __3___ ____3___ ____3___   ___3__ ___3__ ____3___ ____3___

   h7            G7+                 d7          A
   VII           X                   V
E|---------------------------------|--------------------------|
H|-----10-----10----------12-------|-----5-----5-----5-----5--|
G|---------------------11----11----|---7-----7-----6-----6---*|
D|---9------9-------12----------12-|-7-----7-----7-----7-----*|
A|--------9------10----------------|--------------------------|
E|-7-------------------------------|--------------------------|
   __3___ __3___ ____3___ ____3___   __3__ __3__ __3__ __3__


1)(akordy bite lekko)
          h
          G


Ref)
          A
          A
          G
          Fis   h


    h G A
  Oooo... /x4

Outro)
      h  G /x3/  A  h