Tag: strawberry

Sit With The Guru chords – Strawberry Alarm Clock

 

Intro:  C/ Dm/ C/ E Db/


 C C 
Life's created, automated,
 Dm Dm 
Yesterday's invalidated,
 C C 
Hip mankind on,turn your mind on,

      Dm 
Sit with guru,
 F E 
Meditation ooooh,
 F E 
High, High where eagles fly,
 Am D 
Leave today and touched in the sky,
 C C 
Stretch out your mind to humanity,
 Dm Dm 
How many tomorrows can you see?

 C C 
Full life livin', party given',
 Dm Dm 
No one walks who can be driven,
 C C 
Love the starkness, light the darkness,

C/ Dm/ C/ E Db/

    Dm 
Sit with guru,
 F E 
Meditation ooooh,
 F E 
High, High where eagles fly,
 Am D 
Leave today and touched in the sky,
 C C 
Stretch out your mind to humanity,
 Dm Dm 
How many tomorrows can you see?
 Dm Dm 
How many tomorrows can you see?

 C C 
Pussy willows, dew-kissed pillows,
 Dm Dm 
Silver cloud puffs up in billows,
 C C 
Full potential, transcendental,


  Dm 
Sit with guru,
 F E 
Meditation ooooh,
 F E 
High, High where eagles fly,
 Am D 
Leave today and touched in the sky,
 C C 
Stretch out your mind to humanity,
 Dm Dm 
How many tomorrows can you see?
 Dm Dm 
How many tomorrows can you see?

I'm sorry but I'm not sure about the ending.  I usually just end on Dm.

Strawberry Fields Forever intro Tabs by Andy Timmons

 Strawberry Fields Forever (Beatles Cover)
By Andy Timmons Band
http://www.andytimmons.com/atb-story.php

Intro

e|-7---7---7---7---7---7---5---4---------5-------4--------------|
B|-9---9---9---9---9---9---6---6-------7---7---5--------7--5--2-|
G|-9---9---8---8---7---7---7---7---4s6-------4---------6---6--2-|
D|---9---9---9---9---9---9---7---7-----------------5s7-----7--2-|
A|------------------------------------------------------------0-|
E|--------------------------------------------------------------|

Primeira Parte

e|----------------------------------------|
B|----------------------------------------|
G|--6-6-6s7-6-2------2h4p2--------2-2h3---|
D|--------------2-h4--------2---4-------2-|
A|--------------------------2-------------|
E|--------------------------0-------------|

e|----------------------------|-----------------------------|----------------------|
B|----------------------------|--3s5-3-2-------2vvv---------|-2-----2--------------|
G|------------------0-2b3-----|----------4-3h4--------------|---2-----2---2s4-2vv--|
D|-2p0--------------0-0---2vvv|-----------------------------|-----4-----4----------|
A|-----2h4p0-2s4vv------------|-----------------------------|----------------------|
E|----------------------------|---------------------0h2v2v2-|----------------------|

e|----------------------------|-----------------------------|
B|----------------------------|-----------------------------|
G|-3s4-4-4-4-4-4-4-----4------|----2v2v2v-4s6-4-2s1-4-2s1---|
D|-1s2-2-2-1-1-1-x-4s5---7-6--|---------------------------4-|
A|---------------4-------5-5--|-----------------------------|
E|----------------------------|-2v--------------------------|

----

This is the far I could tab. I hope I can tab what is left soon.
Any suggestions or comments, my email is lucas dot insane2 at gmail dot com

Strawberry Tabs by Butthole Surfers

 STRAWBERRY

By the Butthole Surfers

 chris lawrence (mustang@islandnet.com)

pick scrapes during bass intro...

verse:   (rhythm gtr palm mutes G => F#)

  leads over F#
E---------------------------------------------------------|
B---------------------------------------------------------|
G-------0-2-3-5-3-2-3-2-0-2--------------5~-5-3-2-3-3~-0--|
D--4~~~---------------------4~------4~~~------------------|
A---------------------------------------------------------|
E---------------------------------------------------------|

pre-chorus:

E-------------------------------------------------------------|
B-------------------------------------------------------------|
G--8-8-8-8-8-8-8-8-8-8-8-8-8-8-8\7-7-7-7-7-7-7----------------|
D--8-8-8-8-8-8-8-8-8-8-8-8-8-8-8\7-7-7-7-7-7-7-8\5-5-5-5-5-8--|
A--6-6-6-6-6-6-6-6-6-6-6-6-6-6-6\5-5-5-5-5-5-5-8\5-5-5-5-5-8--|
E----------------------------------------------6\3-3-3-3-3-6--|

play 3 times, then:

E--------------------------------------------------------------|
B--------------------------------------------------------------|
G--8-8-8-8-8-8-8-8-8-8-8-8-8-8-8\7-7-7-7-7-7-7/10-10-10-10-10--|
D--8-8-8-8-8-8-8-8-8-8-8-8-8-8-8\7-7-7-7-7-7-7/10-10-10-10-10--|
A--6-6-6-6-6-6-6-6-6-6-6-6-6-6-6\5-5-5-5-5-5-5/-8--8--8--8--8--|
E--------------------------------------------------------------|

next:  (w/ wah)

E------------------------------------------------------------------------|
B--8~~~--7-8-8\10~--10-8-7-7^8^7^8^7^8^7~~---7----7-8-10-8-10-10~-10~-8--|
G------------------------------------------7---7-------------------------|
D------------------------------------------------------------------------|
A------------------------------------------------------------------------|
E------------------------------------------------------------------------|

E------------------------|
B--8-7-8-7^8^7~----7-----|
G----------------7---7\--|
D------------------------|
A------------------------|
E------------------------|

chorus:

E------------------------------------3-----------------------|
B-------5---------------8--------3-----3---------------------|
G----5----5---------8-----8--------0-----0-------0-0-0-------|
D--5---5----5---------8-----8--0-----------------0-0-0-------|
A--3----------3\6-6------------2------------1-------------1--|
E------------------------------3--------------3--3-3-3--3----|

verse w/ similar fills...
repeat all riffs (w/ minimal variation)

solo:

E--------------------------------------------------------9-9\8-8-8--|
B--------------------------------------------------------9-9\8-8-8--|
G--0-5~~--7-8~~--7-5-5-4-5-7~-7~------0-5~~--7-8~~-------6-6\5-5-5--|
D--------------------------------5~~----------------5-6~-6-6\5-5-5--|
A-------------------------------------------------------------------|
E-------------------------------------------------------------------|

E---------------------------------------------------------------------|
B--\13~~-15-13-15-15b~r-13-13-12-13-13\15-15----------13~~-13-15-16~--|
G--------------------------------------------12~~--15-----------------|
D---------------------------------------------------------------------|
A---------------------------------------------------------------------|
E---------------------------------------------------------------------|

E------------------------------------------------------------------------|
B--18-20b-20b-r20~~~~\---------------------------------------------------|
G----------------------0-5~~--7-8~~~--7-5-5-4-5-7-7------0-5~-7-7-7\8~~--|
D---------------------------------------------------5-5~-----------------|
A------------------------------------------------------------------------|
E------------------------------------------------------------------------|

E-------9-9\8--------------------------------------------------------|
B-------9-9\8---8------13~~-15-13-15-15b~~-r15-13-16^15^13-16^15^13--|
G-------6-6\

French Ghetto Tabs by Strawberry Girls

 This is the way I play this song.
Hope you enjoy it.

Standard tuning.


Intro. Let ring.               Repeat 2x               And so on..
|---------3------2-----------3--5---5--|--5-5-5-5-5-5-5-5-5-5-5--|
|------------0---5------------------4--|--4-4-4-4-4-4-4-4-4-4-4--| 
|----------------3------------------5--|--5-5-5-5-5-5-5-5-5-5-5--|
|----------------4------------------4--|--4-4-4-4-4-4-4-4-4-4-4--|
|-----2------------------2-------------|-------------------------|
|--0------------------0----------------|-------------------------|


[0:37]                                                                                   Repeat 3x
|---------------------------------8-7-5----------------------------------------------------------|
|---------------------------------------8-7-5----------------------------------------------------|
|---------------------------------------------8--------------------------------------------------|
|-----------------9-------5--------------------------------------9--------5---------------x--x---|
|--5/7--10--7-------------------------------------5/7--10--7-----------------------9------x--x---|
|--------------7----7--8-----8--------------------------------7-----7--8-----8--5-----5---x--x---|


[1:10]
|-------------------------------------|
|-------------------------------------|
|-----------------------8-/--11-/--9--|
|----5-------------5----x----x-----x--|
|-----------9-----------6-/--9--/--7--|
|--8---8--5---5--8---8----------------|


[1:15] - With echo - Guitar I. Play this all the way to 2:04
|--12--(12)-----8--(8)-----7--(7)-----12--(12)------5--(5)------7--(7)---|
|--12--(12)-----8--(8)-----7--(7)-----12--(12)------5--(5)------7--(7)---|
|--12--(12)-----9--(9)-----8--(8)-----12--(12)------5--(5)------7--(7)---|
|--14--(14)-----10-(10)----9- (9)---- 14--(14)------7--(7)------9--(9)---|
|------------------------------------------------------------------------|
|------------------------------------------------------------------------|

[1:31] - With echo - Guitar II   [1:48]
|-----15------15--19----17--15--|--19p17p15-----15--17--15----17--15----|
|-17------17--------------------|------------17-------------------------|
|-------------------------------|---------------------------------------|
|-------------------------------|---------------------------------------|
|-------------------------------|---------------------------------------|
|-------------------------------|---------------------------------------|

[2:04] - Clean                                                                    Repeat 2x
|---------------------------------------------------------------------------------------|
|--8--------10----------------------------------8--------10-----------------------------|
|--9--(x4)--10--(x4)--9-------------------------9--(x4)--10--(x4)--9--------------------|
|--9--------10--------10--(x4)--9-9-------5h7---9--------10--------10--(x4)--------5h7--|
|--7--------8---------10------------6--6--------7--------8---------10--------6--6-------|
|---------------------8--------------------------------------------8--------------------|

[2:21] - Distortion                    Repeat 4x
|----------------------------------------------|
|---8----------10------------------------------|
|---9--(x4)----10--(x4)---9--------------------|
|---9----------10---------10--(x4)--------5h7--|
|---7----------8----------10--------6--6-------|
|-------------------------8--------------------|

[2:37]                                                                               Repeat 2x
|----------------------------------8-7-5-----------------------------------------------------|
|------------------12-------8------------8-7-5-------------------12--------8-----------------|
|---7/9--12--9---------------------------------8--7/9--12--9-------------------------11------|
|---------------9-----9--10---10------------------------------9-----9--10-----10