Tag: Surprise

My Best Friends Girl Chords – Cars V2

Alot of people play this in E. I reckon it sounds better in F (bar chords).

Intro: F Bb C
      (play top strings)

Verse:
   F                                 
You're always dancing down the street
   Bb       C     
With your suede blue eyes
   F
And every new boy that you meet
   Bb       C
Doesn't know the real surprise
Here she comes again
She's dancing beneath the starry skies
She'll make you flip
Here she comes again
She's dancing beneath the starry skies
You kinda like the way she dips

Chorus:
   Bb
   C                    Bb
She's my best friends girl
   C                    Bb
She's my best friends girl
   C                    F
And she used to be mine

Verse:
You've got your nuclear boots
And your drip dry glove
And when you bite your lip
It's some reaction to love
Here she comes again....(ect)

"Don't bite the hand that feeds ya"...Bondi Cigars

Creedence Clearwater Revival – I Heard It Through The Grapevine Chords

I heard it through the grapevine (Creedence Clearwater Revival)

Main Riff
|--------------|--------------|--------------|--------------|
|--------------|--------------|--------------|--------------|
|--------------|--------------|--------------|--------------|
|-0----0-3--0--|--0-0--3-2--0-|-0----0-3--0--|--0-0--3-2--0-|
|--------------|--------------|--------------|--------------|
|--------------|--------------|--------------|--------------|

basic rythym:
___  _____  _____
| |  | | |  | | | cont.

Intro: play main riff twice.

1st verse

Dm                                                A7          G
Bet you're wondering how I knew 'bout you're plans to make me blue

                Dm                                                   A7
with some other guy that you knew before.  Between the two of us guys you 

                G                         Bm            G         Dm
know I love you more.  It took me by surprise I must say,  when I found out

G
yesterday. Oo I

Chorus:

Dm                                         G
heard it through the grapevine  not much longer would 

                   Dm                                          G
you be mine.  Oo I heard it through the grapevine, and I'm just about to

                                 Dm
lose my mind.  Honey, honey yeah. 

play main riff twice:

Verse 2  same progression

You know that a man ain't supposed to cry, but these tears I can't hold
inside.  Losin' you would end my life you see, cause you mean that much to me.
You could have told me yourself that you found someone else.  Instead I

chorus

play main riff twice

verse 3
People say believe half of what you see, son, and none of what you hear.
I can't help bein' confused if it's true please tell me dear?
Do you plan to let me go for the other guy that you knew before?
Oo I 

chorus

--

vvvvvvvvvvvvvvvvvvvvvvvvvvvvvvvvvvv
v toni                            v                     
v mail: fact1@cipsol.cs.uni-sb.de v  
vvvvvvvvvvvvvvvvvvvvvvvvvvvvvvvvvvv

Snow Patrol – My brothers Lyrics

You might think your cursed
But with so much worse
Is the knowledge that you are
When your cursed with love
That is buried so deep
That you can’t dig it out of you
When your crystal ball
Is a towering wall
And the road is a dark book end
You know what remains
Is what needs maintain
But your temper Is not your friend

Take it easy on me now my brothers
Take it easy on me now my brothers

When their games are driving you up the wall
And their wearing you like a crown
But you’re jar trapped bees
And it’s plain to see
That you can’t tell what’s up or down

Take it easy on me now my brothers
Take it easy on me now my brothers

Well it’s no surprise
In those steel blue eyes
I can still see some flecks of fear
But you’ve grown up fast

So forget the past
And just hurry yourself from here

Take it easy on me now my brothers
Take it easy on me now my brothers
Take it easy on me now my brothers
Take it easy on me now my brothers

Kaskade feat Mindy Gledhill – Eyes Lyrics

You and I
Could paint the sky together
As the world goes by
We’ll go on forever

Look into my eyes
Eyes are the windows to the soul
Look into my eyes
Oh, you will know

There is no surprise, eyes
Because love is plain to see
Look into my eyes
Eyes

Truth is truth
And time can never leap it
This I know
We will always keep it

Look into my eyes
Eyes are the windows to the soul
Look into my eyes
Oh, you will know

There is no surprise, eyes
Because love is plain to see
Look into my eyes
Eyes

The Only One Chords – Me And My Army

Capo on 5:th

Intro:
| G | Am | C | F | x2
| G | Am | F | G | x2
| G | Am | C | F |
| G | Am | F | G |

Verse 1
| G | Am| C | F | Surprise fall in love with deal
| G | Am| C | F | To show up I got
| G | Am| C | F | Too much motion feeds feel
| G | Am| C | F | Would you got it? 

Chorus
G                 Am                  F    G                    
so you want me to say that you´re the only one
G              Am              F    G
You lived your life before you even become
G                  Am               C        F
Like a shot in the back, or all the whispers done
G                 Am                  F    G
Baby see what you got, you´re not the only one

Verse 2
| G | Am| C | F | Dont try to make me feel
| G | Am| C | F | I once had enough
| G | Am| C | F | I throw me a chords for you
| G | Am| C | F | And you got it, 

Chorus
G                 Am                  F    G                    
so you want me to say that you´re the only one
G              Am              F    G
You lived your life before you even become
G                  Am               C        F
Like a shot in the back, or all the whispers done
G                 Am                  F    G
Baby see what you got, you´re not the only one.

The Secrecy Of Mon Amie Chords – Jay Jay Pistolet

I tabbed this from a demo/live version of the song. Sorry, I can't find a youtube version of it.
If you're not listening to the demo/live version, the E in the chorus is an Em.

Chords used: C, F, G, E, Em, Am
Intro: C F C (x2)

C                F                 C
I've been on the look out for some love
       C                     F            C
I have searched the planet's corners from above
       F         C            E           Am
I have opened my eyes, I have opened them wide
        F             G           C        F C
Just in case somebody takes me by surprise

         C           F                      C
And when sometimes I believe I've found the one
       C                 F           C
She'll remind me we were only having fun
          F               C               E                Am
Yeah they tell me all the time that's the biggest fault of mine
     F               G            C      F C
I'll remain in the position I'm assigned

CHORUS:
E (or Em )       Am
You can break my heart,
E                Am
You can break my heart,
        F                 G               C    F C
Just be sure that you are sure when you depart

Oh we took a little weekend by the sea
You were lovely, I was happy, we were free
And we didn't tell a soul, we let the magic just unfold
How it rolled, how it rolled, how it rolled

And I was gonna go away with you to France
You said I know it, like the back of my own hand
We can train the River Thames for a cafe on the Seine
But then this is now & that was way back then 

CHORUS:
You can break my heart,
You can break my heart,
Just be sure that you are sure when you depart

You said I'd picked my moments really really good
You jumped out of bed in front of me you stood
& you shouted me down in my dark blue dressing gown
& you turned your back and never turned around

Well there's no use trying to change somebody's heart
It will only pull your own further apart
I will just shut my eyes, I will shut them really tight
& I'll say "I know, this is only part of life."

CHORUS:
You can break my heart,
You can break my heart,
Just be sure that you are sure when you depart 

C F C (x3)
C G C

Trey Songz – Whoever I Could Lyrics

first off my little brother on the beat
second all be a motherfucking bitch
third off, man these hoes got me weak
i’ve been fucking for a week
and i ain’t nothing when i speak
uh, she coming now, one coming when she leave
plus i’m running through this money like it’s hundreds at my feet
i don’t really fuck with niggers so i’m done after i speak
and hate start with a h cause it comes after a g, aha
yeah, the niggers start to recognize
i snatch the dinner off they plate and get some extra..
and it’s virginia till i … die
i’ma fuck the game raw till she fucking drown
lyrical murder spit a verse and you should duck and dive
i ain’t a rapper so to rappers this is such a surprise
killing niggers really, who give a fuck if they die
well that was harsh but really, who give a fuck, do i? haha

nah, i don’t give a fuck about none of these niggers
don’t none if these niggers pay me
nah, i don’t give a fuck about none of these pictures main
most of these pictures’ crazy
i’m bout my money, can’t you tell ? yeah
so fuck a nigger, and whoever else
i’m bout my money, can’t you tell ? yeah
so fuck a bitch, and whoever else
nah, i don’t give a fuck about none of these niggers
don’t none if these niggers pay me
nah, i don’t give a fuck about none of these pictures main
most of these pictures’ crazy

money on my mind said these haters in the way
having conversation with that paper every day
i ain’t talking short bread … with that magic cake
plus i spend it i can’t take it when the lord take me away
with my lighter, with my lighter
… fill my drink up
ain’t no purple, ain’t no … in this … cup that i’m fucked up
staring at your body, god damn your sexy body
i’m trey i came to play on, and use you as my hobby girl
seen so many faces in this unfamiliar cities
bright skylines got a nigger kinda dizzy
they trying to take my spot well they gonna have to come and get me
my crib is at the top anybody rolling with me
if i could i would bring the whole hood to the top of the world, with me
is my world, for free
trying to get what you came to see
if i could i would bring the whole hood to the top of the world, with me
is my world, for free
trying to get what you came to see.

Fred Eaglesmith Drive In Movie lyrics

Well the phone broke the silence
Like the screaming of a siren
And I just sat beside it
Took another drag on my cigarette
I swore I’d never smoke again
And I watched it rain
I knew that it was you
Calling just to prove that you were strong as you could be
And you get along without me any time and any way
I just stare through the door screen
Watch the cars come down the pike
Their lights against the sky
Like a Drive-In movie
On a country road
That I seen before
Never like the first time
Blue lights on the dashboard
Songs on the radio-o
And how were you to ever know
How much I loved you so
You thought that I was only dreaming
What a surprise it must have been
To realize I was one of them
Not a king, but just a man
Not an angel
Hardly a friend
And not someone you could believe in
I just stare through the door screen
And watch the cars come down the pike
There lights against the sky
Like a Drive-In movie
On a country road
That I seen before
Never like the first time
And out across the rugged hills
The dust blows, the wind wails
Sun bleached skulls and empty shells
Broken men with tales to tell
And I would be one of them
And how are we to ever know how far it’s gonna go
You fall in love and that’s the road
You travel till you can’t no more
And then you just turn around again
And I just stare through the door screen
Watch the cars come down the pike
Their lights against the sky
Like a Drive-In movie
On a country road
That I seen before
Never like the first time

Weekend Players Lovely Face lyrics

My heart – mister beat gave me such a surprise
Right out of the blue are on to you
Now my heart slumping fast
Jumping in the whole time
You walked out of my dreams and into my life

My heart searched the sky I wonder why
*My heart slumping fast*
*Passing me by*
My heart, I wonder how I wonder why
*???*
*???*

I must have been so alone
Solitary, still a stone
So lonely.
And if love is an island
I want to be on em close
Let lose, running free
And get away from here with you

My heart searched the sky I wonder why
*My heart slumping fast*
*Passing me by*
My heart, I wonder how I wonder why
*???*
*???*

Your face
Your face
Your face
Your face

I must have been so alone
Solitary, still a stone
So lonely.

You make me feel so alive
I scared being of me, I swear I’ve tried
I truly believe, there’s nothing in the world
I wouldn’t do for you.
You save me from myself
And I don’t leave anything else

Your face
You make me feel so alive
Your face
I scared being of me, I swear I’ve tried
Your face
I truly believe
Your face
There’s nothing in the world
I wouldn’t do for you

Don’t leave anything else

Tyler Ward Pumped Up Kicks lyrics

Robert’s got a quick hand.
He’ll look around the room he won’t tell you his plan.
He’s got a rolled cigarette hanging out his mouth he’s a cowboy kid.
Yeah he found a six shooter gun.
In his dads closet hidden in a box of fun things and I don’t even know what.
But he’s coming for you yeah he’s coming for you.

All the other kids with the pumped up kicks you’d better run better run outrun my gun.
All the other kids with the pumped up kicks you’d better run better run faster than my bullet.
X1

 
Daddy works a long day.
He be coming home late yeah he’s coming home late.
And he’s bringing me a surprise.
‘Cause dinner’s in the kitchen and it’s packed in ice.
I’ve waited for a long time.
Yeah the slight of my hand is now a quick pull trigger
I reason with my cigarette
And say your hair’s on fire you must have lost your wits yeah.

All the other kids with the pumped up kicks you’d better run better run outrun my gun.
All the other kids with the pumped up kicks you’d better run better run faster than my bullet.
X1

[Whistling]

All the other kids with the pumped up kicks you’d better run better run outrun my gun.
All the other kids with the pumped up kicks you’d better run better run faster than my bullet.
X3

No Diggity Chords – Blackstreet

Chords used:

Em  022000
Am7 X02100
C   X32010
B7  X01202

Verse:

       Em        Am7
Shorty get down, good Lord
C                     B7
Baby got 'em open all over town
         Em            Am7
Strickly biz she don't play around
      C                 B7
Cover much grounds, got game by the pound
Em                  Am7
 Gettin paid is her forte
         C              B7
Each and every day true player way
  Em                     Am7
I can't get her outta my mind
  C                            B7
I think about the girl all the time
Em                Am7
 East side to the west side
          C                 B7
Push your fat rides it's no surprise
Em                     Am7
 She got tricks in the stash
                C                  B7
Stacking up the cash, fast when it comes to the gas
Em           Am7
 By no means average
C                          B7
She's on when she's got to have it
Em                  Am7
Baby your a perfect 10
            C             B7            Em
I wanna get in, can I get down so I can win

Chords:
                   Am7
I like the way you work it
   C                 B7
No Diggity, I got to bag it up
Em                 Am7
 I like the way you work it
   C                 B7
No Diggity, I got to bag it up

etc.

Dreamland Express Chords – John Denver

Verse 1
     G               Em             C                D
I caught a ride on the dreamland express last night
      G                  Em          C           D
I was sailing on an ocean of blue,
 G                 Em                   C          D                       G     Em       C
When right there by my side, much to my surprise; was you

Verse 2
G               Em               C                  D
I said, “Come over here, baby, let me look in your eyes…
G                 Em         C             D
Let me see the very heart of you.”
G                  Em                C                    D           G       Em     C
And I couldn’t believe it, to concede that my dream had come true

Verse 3

She said, “Hey there, sweet daddy, everything’s all right…
For miles there’s not a telephone line…
There’s not a soul to disturb us, don’t be nervous, just come and be mine”

Chorus:
D/F#                         D      G
Let me be the end of your rainbow,
D/F#                        D   G
Let me be the stars up above,
D/F#                             D    G
Let me be the one that you long for darling,
C                   D                   G             Em
Let me be the one that you love      (woh oh)
C                    D                  G
Let me be the one that you love

Verse 4

Well it’s 4 in the morning, honey I can’t sleep
I can’t seem to get you out of my mind,
I keep tossing and turning, yearning for the sun to shine.

I’d like to send you a ticket on the dreamland express,
And take you far away with me,
I’ve got a vision of heaven, and you’re living there with me.

REPEAT CHORUS

Intro / out (1 octave higher)

E ---10---3---2---0---2---0------------------------------0---3----5----3-----2----0--|
B -------------------------------------3----0----1----3------------------------------|
G------------------------------------------------------------------------------------|
D------------------------------------------------------------------------------------|
A------------------------------------------------------------------------------------|
E------------------------------------------------------------------------------------|

E ---10---3---2---0---2---0------------------------------0---3----5--|
B -------------------------------------3----0----1----3--------------|
G--------------------------------------------------------------------|
D--------------------------------------------------------------------|
A--------------------------------------------------------------------|
E--------------------------------------------------------------------|

Curiosity Killed The Cat Misfit lyrics

Sensitive child
Keep running wild
In a confined space
But you’re not to blame
‘Cause you’re not the same
Get on the case

Crazy sheep NOIR, the odd one out
Crazy sheep, let them know what you’re all about

Misfit
Freak that’s on the street
Well I can see the sorrow in your eyes
How long? How low? How high can you go?
There’ll be a bind for every kind
You’ll see

Sensitive child
Your threat is so mild
It worries me
Build yourself some protection
To avoid the injection
Then you can be happy

Crazy sheep noir, the odd one out
Crazy sheep let them know what you’re all about

Misfit
Freak that’s on the street
Now I can see the sorrow in your eyes
How long? How low? How high can you go?
There’ll be a bind for every kind
You’ll see

Set your mood to motion
A secret potion
Designed to satisfy your soul
And underneath
Your broken dreams
You need to satisfy your soul

Misfit
Freak that’s on the street
Now I can see the sorrow in your eyes
How long? How low? How high can you go?
There’ll be a bind for every kind
You’ll see

Too fat, too thin, you lose or you win
This may come as some surprise
Too tall, too short, too loose or too taut
There’ll be a bind for every kind

Misfit
Freak that’s on the street
Now I can see the sorrow in your eyes
How long? How low? How high can you go?

Too fat, too thin, you lose or you win
This may come as some surprise
Too tall, too short, too loose or too taut
There’ll be a bind for every kind…

Dez – Big Girl Lyrics

Now i’m wide open i caught by surprise
The way you’re looking me boy i got you hypnotized
Is like i grew up yeah right before your eyes
I got a little something i know that you like
I met the point where i’m just to me
This can’t nobody do me better baby
For making look at me a little differently
So watch me do my thing and i’ma spend my way.

Pre Chorus:
I’m not a little girl but naughty anymore
Boy get ready ‘cause i’m bout to give you more
More when i want and more when i talk
I’m all grow up so i’m about to show it all

Chorus:
Watch me move my body like a big girl
My chains seems right ‘cause i’ma big girl
Handle my business like a big girl
‘cause i’ma big girl, yeha i’m a big girl

Now i’m wide open i caught by surprise
The way you’re looking me boy i got you hypnotized
Is like i grew up yeah right before your eyes
I got a little something i know that you like
I met the point where i’m just to me
This can’t nobody do me better baby
For making look at me a little differently
So watch me do my thing and i’ma spend my way.

Pre Chorus:
I’m not a little girl but naughty anymore
Boy get ready ‘cause i’m bout to give you more
More when i want and more when i talk
I’m all grow up so i’m about to show it all

Chorus:
Watch me move my body like a big girl
My chains seems right ‘cause i’ma big girl
Handle my business like a big girl
‘cause i’ma big girl, yeha i’m a big girl

Now

[Pre chorus:]
[Chorus:]

Alesana – A Gilded Masquerade Lyrics

As the water drips from the sky,
I start to wonder if I’m still alive
Then I have to find an answer.
Could it be that it was a dream,
And I’m still beside her?
Right before my eyes
Such a big surprise
The water stops.

Wickedness will rain,
And drown us in her sorrow.
(Sorrow, we will drown)
If I hope to survive,
I must think faster.
I’m losing ground.
(I’m losing ground)

Bridge:
Should I go back again?
You had the best of me.
(The best of me)
As I live is just not wrong.
I may be wrong but your brilliance is my darkness.

Chorus:
You had me convinced.
(You had me convinced)
That together we could fly.
Until I started scratching at the surface.
(Started scratching out my way!)
Your body is an illness.

Temples crashing down all around me
Heading…
(Heading towards me bring)
The golden city falls,
And with it our eyes go up in flames
(Go up in flames)

Bridge:
Should I go back again?
You had the best of me.
(The best of me)
As I live is just not wrong.
I may be wrong but your brilliance is my darkness.

Chorus:
You had me convinced.
(You had me convinced)
That together we could fly.
Until I started scratching at the surface.
(Started scratching out my way!)
Your body is an illness.

He is watching me under
My blood runs cold.
There’s no need to feel alone
I feel like throwing myself

Who are you, who are you, who are you?
Yeah!
Hey! x8
Hey! x8

I pulled back again?
You had the best of me.
(The best of me)
As I live is just not wrong.
I may be wrong but your brilliance is my darkness.

Chorus:
You had me convinced.
(You had me convinced)
That together we could fly.
Until I started scratching at the surface.
(Started scratching out my way!)
Your body is an illness.

I may never be the same again.
(I may never be the same again..)

Pumped Up Kicks Chords – Foster The People V6

Standard Tuning
No Capo

Intro/Bass Line:

e|-----------------------------------------------|
B|-----------------------------------------------|
G|-----------------------------------------------|
D|-----------------1-1-1-------------------------|
A|-------------1-3--------3-1-1--1h3p1-----------|
E|-1-1-1-3-4-4--------------------------(4)------|

OR (whatever floats your boat)

e|-----------------------------------------------|
B|-----------------------------------------------|
G|-----------------------------------------------|
D|-----------------1-1h3p1-----------------------|
A|-------------1-3---------3-1-1--1h3p1----------|
E|-1-1-1-3-4-4--------------------------(4)------|

Chords: Fm, Ab, Eb, Bb

Fm                      Ab
Robert's got a quick hand.
      Eb                             Bb
He'll look around the room, he won't tell you his plan.
Fm                        Ab
He's got a rolled cigarette, 
Eb                           Bb
hanging out his mouth he's a cowboy kid.
        Fm                    Ab
Yeah he found a six shooter gun.
       Eb                      Bb
In his dads closet hidden in a box of fun things, 
Fm                       Ab
and I don't even know what.
         Eb                         Bb
But he's coming for you, yeah he's coming for you.

Chorus[x2]
Fm                          Ab
All the other kids with the pumped up kicks 
             Eb
you'd better run, better run,
Bb 
outrun my gun.
Fm                          Ab
All the other kids with the pumped up kicks
             Eb 
you'd better run, better run,
Bb 
faster than my bullet.

Fm                    Ab
Daddy works a long day
         Eb                     Bb
He'll be coming home late, he's coming home late
         Fm                    Ab
And he's bringing me a surprise
     Eb                               Bb
Cos' dinner's in the kitchen and it's packed in ice
     Fm                     Ab
I've waited for a long time
    Eb                         Bb
The slight of my hand is now a quick pull trigger
  Fm                      Ab
I reason with my cigarette
             Eb                           Bb
And say your hair's on fire you must have lost your wits, yeah

Chorus[x2]
Fm                          Ab
All the other kids with the pumped up kicks 
             Eb
you'd better run, better run,
Bb 
outrun my gun.
Fm                          Ab
All the other kids with the pumped up kicks
             Eb 
you'd better run, better run,
Bb 
faster than my bullet.

Fm Ab Eb Bb
 (run,run,run)
Fm Ab Eb Bb
 (whistle)

Chorus [x3]
Fm                          Ab
All the other kids with the pumped up kicks 
             Eb
you'd better run, better run,
Bb 
outrun my gun.
Fm                          Ab
All the other kids with the pumped up kicks
             Eb 
you'd better run, better run,
Bb 
faster than my bullet.

Pumped Up Kicks Chords – Foster The People V7

NO CAPO NEEDED! All Bar Chords

Fm Ab Eb Bb [4X] 

Fm                       Ab
Robert's got a quick hand
      Eb                             Bb
He'll look around the room he won't tell you his plan
Fm                    Ab
Got a rolled cigarette
Eb                             Bb  
Hangin' out his mouth, he's a cowboy kid
      Fm                     Ab
Yeah, found a six-shooter gun
       Eb                         Bb
In his dads closet hidden with a box of fun things
Fm                    Ab
I don't even know what
         Eb                         Bb
But he's comin' for you, yeah he's comin for you, hey

Fm                          Ab
All the other kids with the pumped up kicks
             Eb
You'd better run, better run
Bb
Outrun my gun
Fm                          Ab
All the other kids with the pumped up kicks
             Eb
You'd better run, better run
Bb
Faster than my bullet                
[Repeat]

Fm                    Ab
Daddy works a long day
         Eb                      Bb
He'll be coming home late, he's coming home late
         Fm                    Ab
And he's bringing me a surprise
     Eb                                Bb
Cos' dinner's in the kitchen and it's packed in ice
     Fm                     Ab
I've waited for a long time
    Eb                          Bb
The slight of my hand is now a quick pull trigger
  Fm                      Ab
I reason with my cigarette
             Eb                            Bb
And say your hair's on fire you must have lost your wits, yeah

Fm                          Ab
All the other kids with the pumped up kicks
             Eb
You'd better run, better run
Bb
Outrun my gun
Fm                          Ab
All the other kids with the pumped up kicks
             Eb
You'd better run, better run
Bb
Faster than my bullet 
[Repeat]

Fm Ab Eb Bb [2X]
(run run run)
Fm Ab Eb Bb  [2X]
(whistle)

Fm                          Ab
All the other kids with the pumped up kicks
             Eb
You'd better run, better run
Bb
Outrun my gun
Fm                          Ab
All the other kids with the pumped up kicks
             Eb
You'd better run, better run
Bb
Faster than my bullet 
[Repeat 2X]

The Magic Box Tabs by John Williams

**************************************
**                                  **
** "The Magic Box" by Francis Bebey **
**                                  **
**    Arranged by John Williams     **
**                                  **
**      tab by James McKaskle       **
**                                  **
**    email: jmcka2     **
**                                  **
**************************************

"The Magic Box" refers to an argument in Francis Bebey's childhood village
in Cameroon. Someone had brought a box to the village . Inside this box was
a phonograph. None there had ever seen or heard of such a thing until this
moment so it came as a surprise when it began to play music. They believed
there was a little man somewhere in the box, but no one could see him. The
elders had an ongoing discussion as to the nature of this little man and his
magic box. "The Magic Box" pays hommage to this. (It was finally settled that
the tiny musician must live on the record itself because the music wouldn't
play without it.)

"The Magic Box"

     |   +     |   +   |   +   |   +     |   +    
E||--0-------|-8---8-------8-------7-----8-------|-
B||----------|-----------------------------------|-
G||o---------|-9---9-------9-------7-----9-------|-
D||o---------|-----------------------------------|-
A||----------|-0---------------------------------|-
E||----------|-----------------0-----------------|-

   |   +   |   +   |   +   |   +
E|-------------5-------4---5-------|-
B|---------------------------------|-
G|-------------5-------4---5-------|-
D|---------------------------------|-
A|-0-------------------------------|-
E|-----------------0---------------|-

   |   +   |   +   |   +   |   +     |   +   |   +   |   +   |   +
E|---------0-------3-----------1---|-------------------------1-------|-
B|-----------------5-----------3---|-------------------------3-------|-
G|-----------------3-----------2---|-------------------------2-------|-
D|---------------------------------|-0-------------------------------|-
A|-0---------------4---------------|-----------------0---------------|-
E|---------------------------------|---------------------------------|-

   |---3Q----|    |   +   |   +     |   +   |   +   |   +   |   +
E|-1----1----1----0---------------|-------------0-------4---7-------|-
B|-3----3----3----3-----------3---|-------------3-------------------|-
G|-2----2----2----2-----------1---|-------------1-------4---7-------|-
D|-0--------------------------2---|---------------------------------|-
A|----------------0---------------|-2-------------------------------|-
E|--------------------------------|-----------------0---------------|-

|-1st & 3rd endings--------------------------------------------------|
   |   +   |   +   |   +   |   +     |   +   |   +   |   +   |   +    |
E|-----4-------0-------------------|-------------------------0-------||-
B|-----------------3-----------1---|---------------------------------||-
G|-----4-------1-------------------|--------------------------------o||-
D|-----------------3-----------2---|--------------------------------o||-
A|-2-------------------------------|-0-------------------------------||-
E|-----------------0---------------|-----------------0---------------||-

|-2nd ending---------------------------------------------------------|
   |   +   |   +   |   +   |   +     |   +   |   +   |   +   |   +    |
E|---------8-------7-----------5---|-------------------------0-------||-
B|---------------------------------|---------------------------------||-
G|---------9-------7-----------5---|--------------------------------o||-
D|---------------------------------|--------------------------------o||-
A|---------------------------------|-0-------------------------------||-
E|-7---------------0---------------|-----------------0---------------||-

|-4th ending---------------------------------------------------------|
   |   +   |   +   |   +   |   +     |   +   |   +   |   +   |   +    |
E|---------8-------7-----------5---|-----------------------------0---||-
B|---------------------------------|-------------------------1-------||-
G|---------9-------7-----------5---|---------------------------------||-
D|---------------------------------|---------------------------------||-
A|---------------------------------|-0-------------------------------||-
E|-7---------------0---------------|-----------------0---------------||-

     |---3Q----|    |   +   |   +     |   +   |   +   |   +   |   +
E||--3----3----3----5---5-------3---|-----3-------1-------1-------0---|-
B||--1----1----1--------------------|---------------------------------|-
G||o-0----0----0----5---5-------4---|-----4-------2-------2-------0---|-
D||o-2--------------0---------------|---------------------------------|-
A||--3------------------------------|---------------------------------|-
E||---------------------------------|-3---------------1---------------|-

   |   +   |   +   |   +   |   +     |   +   |   +   |   +   |   +
E|-----0---------------------------|---------0-------5-------7-------|-
B|-----------------3-------1-------|-----1---------------------------|-
G|-----0-----------1---------------|-2---------------5-------7-------|-
D|---------------------------------|---------------------------------|-
A|-3-----------2---------------0---|---------------------------------|-
E|---------------------------------|---------------------------------|-

|-1st ending----------------------------------------------------------
   |---3Q----|    |   +   |   +      |   +   |   +   |   +   |   +
E|-8----8----8----7-------5--------|-4-------7-----------------------|-
B|---------------------------------|-3---------------3-------6-------|-
G|-9----9----9----7-------5--------|---------7-------1-------7-------|-
D|----------------0-------3--------|-2-------------------------------|-
A|-0-------------------------------|---------------------------------|-
E|---------------------------------|-----------------0---------------|-

--------------------------------------------------------------------|
   |   +   |   +   |---3Q----|    |   +   |   +   |   +   |   +
E|-0==============(0)===1----3----|-3-------------------------0-----||-
B|-1==============(1)===----------|-0---------------------1---------||-
G|--------------------------------|-0------------------------------o||-
D|--------------------------------|--------------------------------o||-
A|-0---------------0--------------|---------------------------------||-
E|--------------------------------|-3---------------3---------------||-

   |---3Q----|    |   +   |   +     |   +   |   +   |   +   |   +
E|-8----8----8----10--10------7---|-----7-------8-------8-----------|-
B|--------------------------------|---------------------------------|-
G|-9----9----9----10--10------7---|-----7-------9-------9-----------|-
D|----------------0---------------|---------------------------------|-
A|-0------------------------------|---------------------------------|-
E|--------------------------------|-7---------------0---------------|-

   |   +   |   +   |   +   |   +     |   +   |   +   |   +   |   +
E|-5---------------5-------4-------|-3---------------------------0---|-
B|-5---------------5-------4-------|-3-----------------------1-------|-
G|-5-----------5---5-------5-------|-4-------------------------------|-
D|-7-------7-----------------------|---------------------------------|-
A|-7---7---------------------------|---------------------------------|-
E|-5---------------5-------4-------|-3-------------------------------|-

    |---3Q----|    |   +   |   +     |   +   |   +   |   +   |   +
E|--3----3----3----5---5-------3---|-----3-------1-------1-------0---|-
B|--1----1----1--------------------|---------------------------------|-
G|--0----0----0----5---5-------4---|-----4-------2-------2-------0---|-
D|--2--------------0---------------|---------------------------------|-
A|--3------------------------------|---------------------------------|-
E|---------------------------------|-3---------------1---------------|-

   |   +   |   +   |   +   |   +     |   +   |   +   |   +   |   +
E|-----0---------------------------|---------0-------5-------7-------|-
B|-----------------3-------1-------|-----1---------------------------|-
G|-----0-----------1---------------|-2---------------5-------7-------|-
D|---------------------------------|---------------------------------|-
A|-3-----------2---------------0---|---------------------------------|-
E|---------------------------------|---------------------------------|-

   |---3Q----|    |   +   |   +      |   +   |   +   |   +   |   +
E|-8----8----9----7-------5--------|-4-------7-----------------------|-
B|---------------------------------|-3---------------3-------6-------|-
G|-9----9----9----7-------5--------|---------7-------1-------7-------|-
D|----------------0-------3--------|-2-------------------------------|-
A|-0-------------------------------|---------------------------------|-
E|---------------------------------|-----------------0---------------|-

   |   +   |   +   |---3Q----|      |   +   |   +   |   +   |   +
E|-0==============(0)===1----3----|-3---------------------------0---|-
B|-1==============(1)===----------|-0-----------------------1-------|-
G|--------------------------------|-0-------------------------------|-
D|--------------------------------|---------------------------------|-
A|-0---------------0--------------|---------------------------------|-
E|--------------------------------|-3---------------3---------------|-

    |---3Q----|    |   +   |   +     |   +   |   +   |   +   |   +
E|--3----3----3----5---5-------3---|-----3-------5-----------5-------|-
B|--1----1----1--------------------|---------------------------------|-
G|--0----0----0----5---5-------4---|-----4-------5-----------5-------|-
D|--2--------------0---------------|---------------------------------|-
A|--3------------------------------|-----------------3---------------|-
E|---------------------------------|-3-------------------------------|-

   |   +   |   +   |   +   |   +     |   +   |   +   |   +   |   +
E|-6-------3-----------------------|-1---------------------------0---|-
B|-5---------------5-------1-------|-1-------------------1-h-3-------|-
G|-3---------------3---------------|-2-------0-h-2---3---------------|-
D|---------------------------------|---------------------------------|-
A|-3---------------3---------------|---------------------------------|-
E|---------------------------------|-1-------------------------------|-

   |---3Q----|    |   +   |   +     |   +   |   +   |   +   |   +
E|-1----1----1----3---3-------1---|-----1-------3-------3-----------|-
B|-1----1----1----3---3-------1---|-----1-------3-------3-----------|-
G|-2----2----2----4---4-------2---|-----2-------4-------4-----------|-
D|--------------------------------|---------------------------------|-
A|--------------------------------|---------------------------------|-
E|-1--------------3---------------|-1---------------3---------------|-

   |   +   |   +   |---3Q----|     /f\ +   |   +   |   +   |   +
E|-0------------------------------|---------------------------------|-
B|-1--------------------3----1----|-----------------0---------------|-
G|-0------------------------------|-------------1-------------------|-
D|--------------------------------|---------2-----------------------|-
A|-3------------------------------|-----2-------R-u-b-a-t-o---------|-
E|-----------------3--------------|-0-------------------------------|-

   |   +   |   +   |   +   |   +
E|----------------<12>-----0-------|-|-
B|--------<12>---------------------|-|-
G|---------------------------------|-|-
D|---------------------------------|-|-
A|---------------------------------|-|-
E|---------------------------------|-|-

   |   +   |   +   |   +     |   +     |   +   |   +   |   +   |   +
E|-8---8-------8-------7-----8-------|-------------5-------4---5-------|-
B|-----------------------------------|---------------------------------|-
G|-9---9-------9-------7-----9-------|-------------5-------4---5-------|-
D|-----------------------------------|---------------------------------|-
A|-0---------------------------------|-0-------------------------------|-
E|-----------------0-----------------|-----------------0---------------|-

   |   +   |   +   |   +   |   +     |   +   |   +   |   +   |   +
E|---------0-------3-----------1---|-------------------------1-------|-
B|-----------------5-----------3---|-------------------------3-------|-
G|-----------------3-----------2---|-------------------------2-------|-
D|---------------------------------|-0-------------------------------|-
A|-0---------------4---------------|-----------------0---------------|-
E|---------------------------------|---------------------------------|-

   |------3Q------|   +   |   +     |   +   |   +   |   +   |   +
E|-1----1----1----0---------------|-------------0-------4---7-------|-
B|-3----3----3----3-----------3---|-------------3-------------------|-
G|-2----2----2----2-----------1---|-------------1-------4---7-------|-
D|-0--------------------------2---|---------------------------------|-
A|----------------0---------------|-2-------------------------------|-
E|--------------------------------|-----------------0---------------|-

|-1st ending---------------------------------------------------------|
   |   +   |   +   |   +   |   +     |   +   |   +   |   +   |   +    |
E|-----4-------0-------------------|-------------------------0-------||-
B|-----------------3-----------1---|---------------------------------||-
G|-----4-------1-------------------|--------------------------------o||-
D|-----------------3-----------2---|--------------------------------o||-
A|-2-------------------------------|-0-------------------------------||-
E|-----------------0---------------|-----------------0---------------||-

|-2nd ending---------------------------------------------------------|
   |   +   |   +   |   +   |   +     |   +   |   +   |   +   |   +    |
E|---------8-------7-----------5---|-------------------------0-------||-
B|---------------------------------|---------------------------------||-
G|---------9-------7-----------5---|---------------------------------||-
D|---------------------------------|---------------------------------||-
A|---------------------------------|-0-------------------------------||-
E|-7---------------0---------------|-----------------0---------------||-

   |   +   |   +   |   +   |   +     |   +   |   +   |   +   |   +
E|-----7-------8-------8-------5---|---------------------5---8-------|-
B|---------------------------------|-------------5-------------------|-
G|-----7-------9-------9-------5---|---------5-----------------------|-
D|---------------------------------|-----7---------------------------|-
A|---------------------------------|-0-------------------------------|-
E|-7---------------0---------------|---------------------------------|-

     |   +   |   +   |   +   |   +     |   +   |   +   |   +   |   +
E||--7-------10------4-----------5---|-----0-------1---3---1---0-------|-
B||------------------3---------------|-----------------------------3---|-
G||o-7-------10------------------5---|---------------------------------|-
D||o-0---------------2---------------|-----------------0---------------|-
A||----------------------------------|-0-------------------------------|-
E||----------------------------------|---------------------------------|-

   |   +   |   +   |   +   |   +     |   +   |   +   |   +   |   +
E|-0-------4-----------------------|-------------0-------5---8-------||-
B|-0---------------3-----------1---|---------1-----------------------||-
G|-1-------4-------1-----------2---|-----2--------------------------o||-
D|---------------------------------|--------------------------------o||-
A|-2-------------------------------|-0-------------------------------||-
E|-----------------0---------------|---------------------------------||-

     |   +   |   +   |   +   |   +     |   +   |   +   |   +   |   +
E||--7-------10------4-----------5---|-----0-------1---3---1---0-------|-
B||------------------3---------------|-----------------------------3---|-
G||o-7-------10------------------5---|---------------------------------|-
D||o-0---------------2---------------|-----------------0---------------|-
A||----------------------------------|-0-------------------------------|-
E||----------------------------------|---------------------------------|-

   |   +   |   +   |   +   |   +       |   +   |   +   |-3E--|  |   +
E|-0-------4-----------------------|-(-0---------------------0----------|-
B|-0---------------4---------------|-)-0------------------0-------------|-
G|-1-------4-------2---------------|-(-1---------------1----------------|-
D|-0-------------------------------|-)-------------------------<12>-----|-
A|-2---------------2---------------|-(-----2----------------------------|-
E|-0-------------------------------|-\/0--------------------------------|-

   |   +   |   +   |   +   |   +
E|----------------<12>-----0-------|-|-
B|--------<12>---------------------|-|-
G|---------------------------------|-|-
D|---------------------------------|-|-
A|---------------------------------|-|-
E|---------------------------------|-|-

     |   +   |   +   |   +     |   +     |   +   |   +   |   +   |   +
E||--8---8-------8-------7-----8-------|-------------5-------4---5-------|-
B||------------------------------------|---------------------------------|-
G||o-9---9-------9-------7-----9-------|-------------5-------4---5-------|-
D||o-----------------------------------|---------------------------------|-
A||--0---------------------------------|-0-------------------------------|-
E||------------------0-----------------|-----------------0---------------|-

   |   +   |   +   |   +   |   +     |   +   |   +   |   +   |   +
E|---------0-------3-----------1---|-------------------------1-------|-
B|-----------------5-----------3---|-------------------------3-------|-
G|-----------------3-----------2---|-------------------------2-------|-
D|---------------------------------|-0-------------------------------|-
A|-0---------------4---------------|-----------------0---------------|-
E|---------------------------------|---------------------------------|-

   |------3Q------|   +   |   +     |   +   |   +   |   +   |   +
E|-1----1----1----0---------------|-------------0-------4---7-------|-
B|-3----3----3----3-----------3---|-------------3-------------------|-
G|-2----2----2----2-----------1---|-------------1-------4---7-------|-
D|-0--------------------------2---|---------------------------------|-
A|----------------0---------------|-2-------------------------------|-
E|--------------------------------|-----------------0---------------|-

|-1st ending---------------------------------------------------------|
   |   +   |   +   |   +   |   +     |   +   |   +   |   +   |   +    |
E|-----4-------0-------------------|-------------------------0-------||-
B|-----------------3-----------1---|---------------------------------||-
G|-----4-------1-------------------|--------------------------------o||-
D|-----------------3-----------2---|--------------------------------o||-
A|-2-------------------------------|-0-------------------------------||-
E|-----------------0---------------|-----------------0---------------||-

  /f\  +   |   +   |   +   |   +     |   +   |   +   |   +  /f\   +
E|-----------------8-------7-------|-5-------5-------5-------5-------|-
B|---------------------------------|-5-------5-------5-------5-------|-
G|-----------------9-------7-------|-5-------5-------5-------5-------|-
D|---------------------------------|-7-------7-------7-------7-------|-
A|---------------------------------|-7-------7-------7-------7-------|-
E|-7-------------------------------|-5-------5-------5-------5-------|-

   |   +   |   +   |   +   |   +
E|-7==============================-||
B|-7==============================-||
G|-7==============================-||(oo)====++
D|-7==============================-||
A|-7==============================-||
E|-5==============================-||

   Key:

   |---3Q----|  triplet quarter notes

   |-3E--|   triplet eighth notes

   (
   )
   (   arpeggiate the chord from high to low
   )
   (
   \/

   <12>  12th fret harmonic

    E||--  --||-
    B||--  --||-
    G||o-  -o||-
    D||o-  -o||- open and close repeats
    A||--  --||-
    E||--  --||-

    0====(0)==== (measure 19) indicates tied note

    /f\  fermata

    ---2-h-3---  hammer on

Lenny Kravitz What The… Are We Saying (live) lyrics

Will we ever understand?
Or is the fate of man at hand?
Will we live or shall we die?
How will we ever know if we never try?
The government’s the devil’s hands
It’s a lie and it’s a scam
They wind us up, put us down and watch us go
And if you close your eyes
There’s a big surprise

What the fuck are we saying?
Do we feel what we dream about?
We’ve got to keep on praying
And one day we’ll see the light

I’ve been lost in the name of love
And we kill our brothers daily in the name of god
We’d better chill before we take on some tribulation
And if we realized
Then we’d make a little love now sing

What the fuck are we saying?
Do we believe what wee read about?
We’ve got to keep on praying
And one day we’ll see the light

What the fuck are we saying?
Do we feel what we dream about?
We’ve got to keep on praying
And one day we’ll see the light

Red Hot Chili Peppers – Brendan’s Death Song Lyrics

live and die before i get it done,
will you decide.
i’ll take my words and turn them into sounds,
it will survive.
because a long time ago,
i knew not to deprive.

it’s safe out there and now you’re everywhere,
just like the sky.
and you are love,
you are the love supreme,
you are the rye.
and when you hear this,
you know its your jam,
it’s your goodbye.

[chorus:]
like i said you know i’m almost dead,
you know i’m almost gone.
and when the drummer drums,
he’s gonna play my song,
to carry me along.

like i said you know i’m almost dead,
you know i’m almost gone.
and when the boatman comes to ferry me away,
to where we all belong.

we your cost,
when we were feeling lost,
it’s just the time.
kateri cried,
the day her lover died,
she recognized.
because ya gave her,
a life of real love,
it’s no surprise.

the night’s are long,
but the years are short,
when you’re alive.
way back when,
will never be again,
it was a time.
it’s gonna catch you,
so glad i met you,
to walk a line.

[chorus:]
like i said you know i’m almost dead,
you know i’m almost gone.
and when the drummer drums,
he’s gonna play my song,
to carry me along.

like i said you know i’m almost dead,
you know i’m almost gone.
and when the boatman comes to ferry me away,
to where we all belong.

come get me
hey!

hey!

yeah!
yeah!
yeah!

like i said you know i’m almost dead,
you know i’m almost gone.
and when the drummer drums,
he’s gonna play my song,
to carry me along.

like i said you know i’m almost dead,
you know i’m almost gone.
and when the boatman comes to ferry me away,
to where we all belong.

then we live,
so every time you die,
he’s in the revert sky.
lay me down,
so when it’s time to leave,
another sun will rise.

i said yeah!
yeah! yeah! yeah! yeah!
i said yeah!
yeah! yeah! yeah! yeah!

like i said you know i’m almost dead,
you know i’m almost gone.
(i said yeah!
yeah! yeah! yeah! yeah!)
and when the drummer drums,
he’s gonna play my song,
to carry me along.
(i said yeah!
yeah! yeah! yeah! yeah!)
like i said you know i’m almost dead,
you know i’m almost gone.
(i said yeah!
yeah! yeah! yeah! yeah!)
and when the boatman comes to ferry me away,
to where we all belong.
(i said yeah!
yeah! yeah! yeah! yeah!)

like i said you know i’m almost dead,
you know i’m almost gone.
like i said you know i’m almost dead,
you know i’m almost gone.
like i said you know i’m almost dead,
you know i’m almost gone.