Tag: tabs

Chloe intro Tabs – Little Brother Vsion 2

 -------------------------------------------------------------------------------
                             CHLOE - Little Brother
-------------------------------------------------------------------------------
: Thomas Harrison
 tomjar8.au

Tuning: E standard
Capo: 2nd fret

e|-------------5--2-2h3p2-0----------|
B|---3p0-3s5----------------0--------|
G|-----------------------------------|
D|-----------5-----------------------|
A|-3---------------------------------|
E|-----------------------------------|

e|---------------5---2-2h3p2-0-------|
B|-----3p0-3s5----------------0------|
G|-----------------------------------|
D|--0h2--------5---------------------|
A|-3---------------------------------|
E|-----------------------------------|

Just my take on the intro, John's version probably isn't exactly like this.

************************************

| /   slide up
| \   slide down
| h   hammer-on
| p   pull-off
| ~   vibrato
| +   harmonic
| x   Mute note
| b   Bend
| pb  Pre-bend
| br  Bend release
| pbr Pre-bend release
| brb Bend release bend

************************************

Well Be Okay Tabs – With Confidence

 With Confidence
   We'll Be Okay

By: AJ Booker

Guitar 1: Luke
Guitar 2: Ini

VERSE:
Guitar 1 and 2:
e|-----------------------------|
B|-----------------------------|
G|--7-7---4-4---2-2------------|
D|--7-7---4-4---2-2---5-5-555--|
A|--5-5---2-2---0-0---5-5-555--|
E|--------------------3-3-333--| x3

e|---------------------|
B|---------------------|
G|--7-7---4-4---2------|
D|--7-7---4-4---2-hold-|
A|--5-5---2-2---0------|
E|---------------------|

e|-----------------------------|
B|-----------------------------|
G|--7-7---4-4---2-2------------|
D|--7-7---4-4---2-2---5-5-555--|
A|--5-5---2-2---0-0---5-5-555--|
E|--------------------3-3-333--| x4


Over the second and last time repeated, Guitar 2 plays:
e|---------------------------------------------|
B|-----15-14-10--------------15-14-10----------|
G|---14----------16-14-----14------------------|
D|-12----------12--------12----------12-14-12--|
A|---------------------------------------------|
E|---------------------------------------------|


PRECHORUS:
Guitar 1 only
e|------------|
B|------------|
G|-6/7-7-6-7--|
D|-6/7-7-6-7--|
A|-4/5-5-4-5--|
E|------------| x3

CHORUS:
Guitar 1 and 2:
e|--------------------------------------|
B|--------------------------------------|
G|-77777777-44444444----------22222222--|
D|-77777777-44444444-55555555-22222222--|
A|-55555555-22222222-55555555-00000000--|
E|-------------------33333333-----------| x2

2ND VERSE (intro):
Guitar 1:
e|--------------------------------------------------|
B|--------------------------------------------------|
G|--7-7---4-4---2-2--------------7-7---4-4---2------|
D|--7-7---4-4---2-2---5-5-555----7-7---4-4---2-hold-|
A|--5-5---2-2---0-0---5-5-555----5-5---2-2---0------|
E|--------------------3-3-333-----------------------|

Guitar 2:
e|---------------------------------------------|
B|-----15-14-10--------------15-14-10----------|
G|---14----------16-14-----14------------------|
D|-12----------12--------12----------12-14-12--|
A|---------------------------------------------|
E|---------------------------------------------|

I'm not too sure what the play during the actual verse, but I just play the
chords from the intro but palm muted and 4 times on each like:
e|----------------------|
B|----------------------|
G|-7777-4444-2222-------|
D|-7777-4444-2222-5555--|
A|-5555-2222-0000-5555--|
E|----------------3333--| x2
   **** **** **** ****

PRECHORUS:
Guitar 1 only
e|-------****---------****---------****-----------------------|
B|-------****---------****---------****-----------------------|
G|-6/7-7-****---6/7-7-****---6/7-7-****--7--------------------|
D|-6/7-7-****---6/7-7-****---6/7-7-****--7--------------------|
A|-4/5-5-****---4/5-5-****---4/5-5-****--5-hold---------------|
E|-------****---------****---------****----------*pickslide*--|

CHORUS:
Guitar 1 and 2:
e|--------------------------------------|
B|--------------------------------------|
G|-77777777-44444444----------22222222--|
D|-77777777-44444444-55555555-22222222--|
A|-55555555-22222222-55555555-00000000--|
E|-------------------33333333-----------| x2

BRIDGE:
Guitar 1 and 2:
e|------------------------------------------------|
B|------------------------------------------------|
G|-7-4-7-----7-4-7-6---7-4-7-----7-4-7-6--7777777-|
D|-7-4-7-----7-4-7-6---7-4-7-----7-4-7-6--7777777-|
A|-5-2-5-----5-2-5-4---5-2-5-----5-2-5-4--5555555-|
E|------------------------------------------------|
                                          *******


CHORUS:
Guitar 1 and 2:
e|----------------------------------------------------------------------------|
B|----------------------------------------------------------------------------|
G|-7-7-4-4--44444444----------22222222--77777777-44444444----------22222222---|
D|-7-7-4-4--44444444-55555555-22222222--77777777-44444444-55555555-22222222---|
A|-5-5-2-2--22222222-55555555-00000000--55555555-22222222-55555555-00000000---|
E|-------------------33333333------------------------------33333333-----------|

OUTTRO:
Guita

Cowboy Casanova Tabs – Carrie Underwood Vsion 1

 Come for the Country, stay for the guitar and Rock backing plus simple solos. I could not resist the allure of
being able to use guitar.

Intro: e|-----------------------------|
       B|-----------------------------|
       G|-x-xxx-xxx-xxx-xxx-xxx-xx-xx-|
       D|-x-xxx-xxx-xxx-xxx-xxx-xx-xx-|
       A|-x-xxx-xxx-xxx-xxx-xxx-xx-xx-|
       E|-----------------------------|

       e|-------------------|     e|-----|
       B|-------------------|     B|-----|
       G|-7-x------5-5-33-x-| X3  G|-77~-|
       D|-7-x-33-x-5-5-33-x-|     D|-77~-|
       A|-5-x-33-x-3-3-11-x-|     A|-55~-|
       E|-----11-x----------|     E|-----|

Verse: e|-------------------|     e|-----|
       B|-------------------|     B|-----|
       G|-7-x------5-5-33-x-| X3  G|-77~-| (Repeat entire part twice)
       D|-7-x-33-x-5-5-33-x-|     D|-77~-|
       A|-5-x-33-x-3-3-11-x-|     A|-55~-|
       E|-----11-x----------|     E|-----|

          You better take it from me

          That boy is like a disease

          You're running, you're trying, you're trying to hide

          And you're wondering why you can't get free

          He's like a curse, he's like a drug

          You get addicted to his love

          You wanna get out, but he's holding you down 'cause you can't live without one more 

       e|--------------------------|
       B|--------------------------|
       G|-2-22-22-22-25-55-55-55-5-|
       D|-2-22-22-22-25-55-55-55-5-|
       A|-0-00-00-00-03-33-33-33-3-|
       E|--------------------------|

          touch. He's a 

Chorus: e|---------------------------------------------|
        B|---------------------------------------------|
        G|-7-5~-------------3-33-33-33-32-22-22-22-2-x-| X2
        D|-7-5~-3-33-33-33-33-33-33-33-32-22-22-22-2-x-|
        A|-5-3~-3-33-33-33-31-11-11-11-10-00-00-00-0-x-|
        E|------1-11-11-11-1---------------------------|

           good time cowboy casanova, leaning up against the record machine.

           He looks like a cool drink of water, but he's candy-coated misery

        e|--------------------------------------------------|
        B|--------------------------------------------------|
        G|-7-77-7------------------------------2-22-22-22-2-|
        D|-7-77-72-22-23-33-33-33-35-55-55-55-52-22-22-22-2-|
        A|-5-55-52-22-23-33-33-33-35-55-55-55-50-00-00-00-0-|
        E|-------0-00-01-11-11-11-13-33-33-33-3-------------|

           He's the devil in disguise, a snake with blue eyes and he only comes out at night.

        e|-------------------|
        B|-------------------|
        G|-3-33-33-33-3-5-5~-|
        D|-3-33-33-33-3-5-5~-|
        A|-1-11-11-11-1-3-3~-|
        E|-------------------|

           Gives you feelings that you don't want to fight. You better run for your

Pre-Verse: e|-------------------|     e|-----|
           B|-------------------|     B|-----|
           G|-7-x------5-5-33-x-| X3  G|-77~-|
           D|-7-x-33-x-5-5-33-x-|     D|-77~-|
           A|-5-x-33-x-3-3-11-x-|     A|-55~-|
           E|-----11-x----------|     E|-----|
 
              life

Verse: e|-------------------|     e|--------------------------|
       B|-------------------|     B|--------------------------|
       G|-7-x------5-5-33-x-| X3  G|-------------8-88-88-88-8-|
       D|-7-x-33-x-5-5-33-x-|     D|-3-33-33-33-38-88-88-88-8-|
       A|-5-x-33-x-3-3-11-x-|     A|-3-33-33-33-36-66-66-66-6-|
       E|-----11-x----------|     E|-1-11-11-11-1-------------|

          I see that look on your face

          You ain't hearing what I say

          So I'll say it again 'cause I've been where you've been and I know how it ends

          You can't get away

       e|-------------------|     
       B|-------------------|    
       G|-7-x------5-5-33-x-| X3
       D|-7-x-33-x-5-5-33-x-|   
       A|-5-x-33-x-3-3-11-x-|   
       E|-----11-x----------|   

          Don't even look in his eyes

          He'll tell you nothing but lies

          And you wanna be

People Forget Tabs – ANTEMASQUE

 Antemasque-People Forget

After this one, I'm gonna make Providence and
maybe some other Antem. tab, and soon after an ATDI tab.



Intro:
 
With delay.

  
e|------------------------------------------------------------------------------------------|
B|------------------------------------------------------------------------------------------|
G|---------------------------------------12-12-12-12/19~------------------12-12-12-12/19~---|
D|--8-8-8-8-10-10------8-8-8-8-10-10---------------------8-8-8-8-10-10----------------------|
A|----------------10-----------------10--------------------------------10-------------------|
E|------------------------------------------------------------------------------------------|


Verse:

You can play without the open G string, it'll still sound ok.
 
|-------------------------------------------------------------|
|-------------------------------------------------------------|
|-0--0------0--0------0--0--0--0-0-0-0-0-0-0-0-0-0--0-0--0-0--|x2
|-17/12~----17/11~----10-10-10-108-8-7-7-5-5-5-8-5--5-5--5-5--|
|-------------------------------------------------------------|
|-------------------------------------------------------------|


Pre-chorus:

You can play the chords without the notes on the 5th and the 6th string, 
but I added them because it sounds more melodic.

|-10-10-10-10--10-10-10-10-10-10---------------------------------------|
|-10-10-10-10--8--8--8--8--8--8----------------------------------------|
|-10-10-10-10--9--9--9--9--9--9---12-12-12-12--12-12-12-12-12-12-12-12-|
|-10-10-10-10--10-10-10-10-10-10--10-10-10-8---10-10-10-10-10-8--8--8--|
|-8--8--8--8---x--x--x--x--x--x---10-10-10-10--10-10-10-10-10-10-10-10-|
|--------------8--8--8--8--8--8----------------------------------------|


|-10-10-10-10--10-10-10-10-10-10---------------------|
|-10-10-10-10--8--8--8--8--8--8---7-7-7-7-7-7-7-7-7~-|
|-10-10-10-10--9--9--9--9--9--9---7-7-7-7-7-7-7-7-7~-|
|-10-10-10-10--10-10-10-10-10-10--7-7-7-7-7-7-7-7-7~-|
|-8--8--8--8---x--x--x--x--x--x---5-5-5-5-5-5-5-5-5~-|
|--------------8--8--8--8--8--8----------------------|


Chorus: 

With delay.

|--------------------------------------------------|
|--------------------------------------------------|
|------------------7--7-7--------------------------|
|-8--8-8------------------8-8-10--8--8-8-----------|
|--------10--10-10-----------------------10--10-10-|
|--------------------------------------------------|

|-------------------------------------------------------|
|-------------------------------------------------------|
|-7--7-7-----------7--7-7-7--------12--12-12--9--9-9-7~-|
|--------8--8-8-------------8--8-8----------------------|
|-------------------------------------------------------|
|-------------------------------------------------------|


This part is usually played by another guitar while the first lets the 7th note on the G string ring,
but it's much more simple to just play this on one guitar.

|-------------------------------------------------|
|---------11----------11----------11----------11--|
|-10--12------10--12------10--12------10--12------|
|-------------------------------------------------|
|-------------------------------------------------|
|-------------------------------------------------|


Solo:

|-------------------------------------------13-15-15b--------|
|----------------------11-------13p11-13-15-----------15-13~-|
|-------10----------------12-10------------------------------|
|-10h12----10-8h10/------------------------------------------|
|------------------------------------------------------------|
|------------------------------------------------------------|


Back to verse:

|-------------------------------------------------------------|
|-------------------------------------------------------------|
|-0--0------0--0------0--0--0--0-0-0-0-0-0-0-0-0-0--0-0--0-0--|x2
|-17/12~----17/11~----10-10-10-108-8-7-7-5-5-5-8-5--5-5--5-5--|
|-------------------------------------------------------------|
|------

See Ya Sucker Tabs – Modern Baseball Vsion 2

 Track: See Ya, Sucker
Artist: Modern Baseball
 Sports (2014)
Tuning: Eb Standard (Eb Ab Db Gb Bb eb)

---

: Noah Maranesi
Website: Instagram.com/n04hz_ark

---

Guitar 1 - Brendan (left)

Intro (0:00) (exact strumming not shown)

    "I reckon you grew up in a town that said reckon all the time..."
                                                                                                             x2
 | B        | C#m               G#m     | A              B       | E                C#m      | B              |
e|----------|---------------------------|------------------------|---------------------------|----------------|
B|:---------|---------------------------|------------------------|---------------------------|---------------:|
G|----------|---------------------------|------------------------|---------------------------|----------------|
D|--1--1--1-|-2--2--2--2--2--2----------|------------------------|-6--6--6--6--6--6----------|----------------|
A|:-2--2--2-|-4--4--4--4--4--4--2--2--2-|-4--4--4--4--4--6--6--6-|-7--7--7--7--7--7--7--7--7-|-6--6--6--6--6-:|
E|----------|-------------------4--4--4-|-5--5--5--5--5--7--7--7-|-0--0--0--0--0--0--9--9--9-|-7--7--7--7--7--|


Verse (0:18)

    "Well here goes nothing..."
    Repeat Intro x2


Pre-Chorus (0:38) (exact strumming not shown) (strum each noted chord twice)

    "But I, won't fuckin' wait..."

                                                      x2
 | G#m         | A          | E          | E           | B             |
e|-------------|------------|------------|-------------|---------------|
B|:------------|------------|------------|------------:|---------------|
G|-------------|------------|------------|-------------|---------------|
D|-------------|------------|-6--6--6--6-|-6--6--6--6--|---------------|
A|:-2--2--2--2-|-4--4--4--4-|-7--7--7--7-|-7--7--7--7-:|-6--6--6--6--6-|
E|--4--4--4--4-|-5--5--5--5-|-0--0--0--0-|-0--0--0--0--|-7--7--7--7--7-|


Chorus (0:59) (strum each noted chord twice)

    "On the corner of Canal and Broadway..."


e|--4--4--4--4--4--4--0--0--4--4--4--4--4--4--0--0--|
B|:-5--5--5--5--5--5--2--2--5--5--5--5--5--5--2--2--|
G|--------------------------------------------------|
D|--------------------------------------------------|
A|:-------------------------------------------------|
E|--------------------------------------------------|

                                                   x2
e|--2--2--2--2--2--2--4--4--0--0--0--0--0--0--0--0--|
B|--4--4--4--4--4--4--5--5--2--2--2--2--2--2--2--2-:|
G|--------------------------------------------------|
D|--------------------------------------------------|
A|-------------------------------------------------:|
E|--------------------------------------------------|


Post-Chorus (1:18)

e|----------------------------------------------------|
B|----------------------------------------------------|
G|----------------------8--8--8-/-6--6-6--6--6--6--6--|
D|--6--6-6--6--6--6--6--9--9--9-/-7--7-7--7--7--7--7--|
A|--7--7-7--7--7--7--7--------------------------------|
E|--0--0-0--0--0--0--0--------------------------------|

                                x2
e|-------------------------------|--+7+--|
B|:-9--9--9---------------------:|--+7+--|
G|--9--9--9----------------------|--+7+--|
D|-----------6--6-6--6--6--6--6--|--+7+--|
A|:----------7--7-7--7--7--7--7-:|--+7+--|
E|-----------0--0-0--0--0--0--0--|--+7+--|


Verse 2 (1:28)

    "If you get stuck I'm just gonna go on without you..."
    Repeat Post-Chorus without harmonics (last measure)

Chorus (1:38)
    
    "On the corner of Canal and Broadway..."
    Repeat Chorus

Outro (1:56)

    "And I reckon you grew up in a town..."

e|--4--4--4--4--4--4--0--0--4--4--4--4--4--4--0--0--|
B|--5--5--5--5--5--5--2--2--5--5--5--5--5--5--2--2--|
G|--------------------------------------------------|
D|--------------------------------------------------|
A|--------------------------------------------------|
E|------------------------------

A Cowboys Work Is Never Done Tabs – Matthew Connor

 A Cowboy's Work Is Never Done
Cover by Matthew Connor ft. Julia Haltigan
 Norman


(Verse)
   Cm                                G
   Ride, I used to jump my horse and ride
                         Cm
   I had a six gun at my side
                            G
   I was so handsome, women cried
                              Cm
   And I got shot but I never died


{Whistle Interlude}
 (C#m)                              (C#m)                           (Cm)
e|-16----16p15------15--16-16--16----16----16p15------15---16----16--15--------|
B|--------------17--------------------------------17---------------------------|
G|-----------------------------------------------------------------------------|
D|-----------------------------------------------------------------------------|
A|-----------------------------------------------------------------------------|
E|-----------------------------------------------------------------------------|


(Verse)
           (Cm)                                        (G)
   I could play...            if I do every thing he'd say...
e|-------------------------------------------------------------------------|
B|-----------------4-------------------6-----------------------------------|
G|--------------------4--4h5------------------------8--7-----4-------------|
D|-------------------------------------------------------------5----4-4h5--|
A|-------------------------------------------------------------------------|
E|-------------------------------------------------------------------------|

                                 (Cm)                                          (G)
   Girls seem to just get in his way...       Those days we weren't considered fun...
e|----------------------------------------8-7-----------------------------------8-8/10--|
B|----------------4-----------3---------4-----------------------------------------------|
G|-------------------------------5----5-------------------------------------------------|
D|--------------------------------------------------------------------------------------|
A|--------------------------------------------------------------------------------------|
E|--------------------------------------------------------------------------------------|

                                     (Cm)
         ...A cowboy's work is never done
e|----13-13-------------16------------15----|
B|------------------------------------------|
G|------------------------------------------|
D|------------------------------------------|
A|------------------------------------------|
E|------------------------------------------|


(Chorus)
              Ab            Bb               Cm
   He'd fight crime all the time, he'd always win,
            G                                   Cm
   Till his mom would break it up, and call him in
          Ab            Bb               Cm
   He was tough he was hard, but he was kind
               G                                       Cm
   And he was loved, cause guys like him were hard to find


{Whistle Interlude}
 (C#m)                              (C#m)                           (Cm)
e|-16----16p15------15--16-16--16----16----16p15------15---16----16--15--------|
B|--------------17--------------------------------17---------------------------|
G|-----------------------------------------------------------------------------|
D|-----------------------------------------------------------------------------|
A|-----------------------------------------------------------------------------|
E|-----------------------------------------------------------------------------|


(Verse)
   Cm                                G
   Ride, I'd like to ride again some day
                               Cm
   I think I still know how to play
                                   G
   I'd play games now, but it's no fun
                           
   A cowboy's work is never done...


(Outro)
  (Cm)                    (Gsus)      (G)         (Cm)             

Land Of Snow And Sorrow intro Tabs – Wintersun Vsion 1

 -------------------------------------------------------------------------------
                             Land of Snow and Sorrow - Wintersun
-------------------------------------------------------------------------------
: Kakku
Tuning: EADGBE (Normal)

All the way till first verse.

h   = Hammer on
p   = Pull off
/   = slide
(x) = To play or not to play..
~   = Awesome


e|---------------------------------------------------------------------------|
B|---------------------------------------------------------------------------|
G|---------------------------------------------------------------------------|
D|---------------------------------------------------------------------------|
A|-1--1-3-3-----1-1-3-4-4----1--4-6-6----1-1-6-8-8---------------------------|
E|---------------------------------------------------------------------------|

e|---------------------------------------------------------------------------|
B|---------------------------------------------------------------------------|
G|---------------------------------------------------------------------------|
D|---------------------------------------------------------------------------|
A|-1--1-3-3-----1-1-3-4-4----1--4-6-6----1-1-8-9-9---------------------------|
E|---------------------------------------------------------------------------|

e|---------------------------------------------------------------------------|
B|---------------------------------------------------------------------------|
G|---------------------------------------------------------------------------|
D|---------------------------------------------------------------------------|
A|-1--1-3-3-----1-1-3-4-4----1--4-6-6----1-1-6-8-8---------------------------|
E|---------------------------------------------------------------------------|

e|---------------------------------------------------------------------------|
B|---------------------------------------------------------------------------|
G|---------------------------------------------------------------------------|
D|---------------------------------------------------------------------------|
A|-1--1-3-3-----1-1-3-4-4----1--4-6-6----1-1-8-9-9---(1)---------------------|
E|---------------------------------------------------------------------------|


e|---------------------------------------------------------------------------|
B|---------------------------------------------------------------------------|
G|---------------------------------------------------------------------------|
D|-3h6-6----6p3-6----6-8-10----10s11-11-11----3h6-6----6-5-3----6-8-10-------|
A|---------------------------------------------------------------------------|
E|---------------------------------------------------------------------------|

e|---------------------------------------------------------------------------|
B|---------------------------------------------------------------------------|
G|-------------------------10-13-13---13-10-13---13-15-17---17-18-18b20------|
D|--11/13-13-13h16-16-15-----------------------------------------------------|
A|---------------------------------------------------------------------------|
E|---------------------------------------------------------------------------|

e|---------------------------------------------------------------------------|
B|----------------------------------------14-16-16~--------------------------|
G|-10-13-13---13-12h13p12-10---13-15-17--------------------------------------|
D|---------------------------------------------------------------------------|
A|---------------------------------------------------------------------------|
E|---------------------------------------------------------------------------|

\,,/ 

Repeat 3x:
_________________________________________________________________________________

e|---------------------------------------------------------------------------|
B|---------------------------------------------------------------------------|
G|-----------------

Petrol Cb Tabs – Dave Grohl

 -------------------------------------------------------------------------------
                             PETROL CB - Dave Grohl
-------------------------------------------------------------------------------
: Katie Winter
 katieemonsterr@hotmail.com

Tuning: Standard Tuning, but tune down half step on high "e" - E A D G B eb

I learned how to play this by ear and this is just what I 
heard; I believe this is at least 95% accurate if not 100%. It's pretty
easy to play and everything is short and sweet and to the point so
I have just combined everything as they are played to prevent any super-
short tab parts because it is pretty straight-forward. Also the lyrics I am
providing isn't 100% accurate because in the verses it is sort-of hard
to decipher what he is saying so it is just a guess on that.

Intro + Verse:
eb|-----------|--------------------------------------------------------------|
B|------------|--------------------------------------------------------------|
G|------------|--------------------------------------------------------------|
D|--3-3--3-3--|--3-3--10~10~10~-4~4~-3-3-10~10~10~---------------------------|
A|--3-3--3-3--|--3-3-----------------3-3-------------------------------------|
E|--1-1--1-1--|--1-1-----------------1-1-------------------------------------|

Chorus + Bridge:
eb|-------------------|------------------------------------------------------|
B|--------------------|------------------------------------------------------|
G|--------------------|------------------------------------------------------|
D|--3-3-3-3--5-5-5-5--|--4-4-4-4--6-6-6-6------------------------------------|
A|--3-3-3-3--5-5-5-5--|--4-4-4-4--6-6-6-6------------------------------------|
E|--1-1-1-1--3-3-3-3--|--2-2-2-2--4-4-4-4------------------------------------|

Outro 1 + Outro 2:
eb|----------0-----0------|-----------0-----0--------------------------------|
B|---------1---1-----1----|---------1---1-----1------------------------------|
G|-------2-------2-----2--|-------2-------2-----2----------------------------|
D|--3-3-------------------|--3-3---------------------------------------------|
A|--3-3-------------------|--3-3---------------------------------------------|
E|--1-1-------------------|--0-0---------------------------------------------|

(Intro)
(Verse x4)

(Verse)
She came over with her 
Brand new boyfriend, listen
We're building a relation
For the music shakes it

(Chorus)
There's that song again
There's that song again
There's that song again
There's that song again...

(Verse x4)
(Verse)
How come I could not cheat
If you're a colorful lover
I don't mind being one of them
I don't mind my, big deal

(Chorus)
(Bridge)
It's been thrown away again
It's been thrown away again
It's been thrown away again
It's been thrown away again...

(Verse x8)

(Chorus)

(Bridge)

(Outro 1 x3)
(Outro 2)
(Outro 1 until end)


************************************

| /   slide up
| \   slide down
| h   hammer-on
| p   pull-off
| ~   vibrato
| +   harmonic
| x   Mute note
| b   Bend
| pb  Pre-bend
| br  Bend release
| pbr Pre-bend release
| brb Bend release bend

************************************

Dear S​​a​​m Im Dead Too You Tabs – Weerd Science

 -------------------------------------------------------------------------------
                        Dear S.A.M. I'm Dead Too You - Weerd Science
-------------------------------------------------------------------------------
:fmongold       
Email:fmongold

. :)

I tabbed it the best I could from this video:


If I did something wrong please feel free to make corrections.

Tuning:Standard (EADgbe)

Main Riff
e|----------------------|
B|----------------------|
G|----------------------|
D|-------9-10---10-9h---|
A|-7-7------------------|
E|-----0----------------|

e|--------------------------------|
B|--------------------------------|
G|--------------------------------|
D|-------12-10--10/9-10h9---------|
A|-7-7--------------------10-9h/7-|
E|-----0--------------------------|

| /  slide up
| \  slide down
| h  hammer-on
| p  pull-off
| ~  vibrato
| +  harmonic
| x  Mute note

Dog Log Tabs – Dave Brockie Experience

 My first post of 2016. Requested by jonnehboi.
According to Dave, this song dates back to the days of Death Piggy. And it shows.



All strings tuned half-step down.

INTRO
|-------------------------------------------------------------|
|-------------------------------------------------------------|
|-------------------------------------------------------------|
|-------0-2-0----0-0-0-2-0~--2--2-3-5-3-2----3-2-0---0-2-0----|
|--3--3-------3------------------------------------3-------3--|
|-------------------------------------------------------------| x4


VERSE
|--------------------------------------------------------|
|-------1-------------3------------5------------6--------|
|---------0---0---------2---2--------4---4--------5---5--|
|-----------2----0~-0-----0---2~-2-----2---3~-3-----3----|
|--3~-3--------------------------------------------------|
|--------------------------------------------------------| x3


|--------------------------------------------------------|
|-------1-------------3------------5------------6--------|
|---------0---0---------2---2--------4---4--------5---5--|
|-----------2----0~-0-----0---2~-2-----2---3~-3-----3----|
|--3~-3--------------------------------------------------|
|--------------------------------------------------------|
|
|Overlay
|----------------------------------------------------------|
|----------------------------------------------------------|
|----------------------------------------------------------|
|-----------------------------2~~----------3~~-------------|
|-----------------------------2~~----------3~~-\\Pick\\----|
|-----------------------------0~~----------1~~--\\Slide\\--|


CHORUS ("Fell off a waterfall")
|----------------------------------------|
|----------------------------------------|
|--9-x-9-x-9-x-12-x-10-x-10-x-10-x-10-x--|
|--9-x-9-x-9-x-12-x-10-x-10-x-10-x-10-x--|
|--7-x-7-x-7-x-10-x--8-x--8-x--8-x--8-x--|
|----------------------------------------|

|-----------------------|
|-----------------------|
|--9-x-9-x-9-x-12-x-10--|
|--9-x-9-x-9-x-12-x-10--|
|--7-x-7-x-7-x-10-x--8--|
|-----------------------|



Repeat             INTRO (Hold the final note)



VERSE 2 (First half has no guitar)
|------------------------|
|------------------------|
|--5~~----5\4~~---4/5~~--|
|------------------------|
|--3~~----3\2~~---2/3~~--|
|------------------------| x2


OUTRO PART 1
|------------------------------------------------|
|-------1~~---------1~~---------1~~---------1~~--|
|------------------------------------------------|
|--------------0~~-------0-2~~-------2-3~~-------|
|--3~~-------3-----------------------------------|
|------------------------------------------------| x2

|------------------------------------------------|
|-------1~~---------1~~---------1~~---------1~~--|
|------------------------------------------------|
|--------------0~~-------0-2~~-------2-3~~-------|
|--3~~-------3-----------------------------------|
|------------------------------------------------| x2
|
|------------------------------------------------------|
|-------1-1-1p0-----1-1-1p0-----1-1-1p0-----1-1-1p0----|
|---------------0-----------0-----------0-----------0--|
|------------------------------------------------------|
|------------------------------------------------------|
|------------------------------------------------------| x2

OUTRO PART 2
|--------------------------------------------------------|
|-------1~-1-1-------1~-1-1-------1~-1-1-------1~-1-1-1--|
|-------0~-0-0-------0~-0-0-------0~-0-0-------0~-0-0-0--|
|-------2~-2-2--0~-0-0~-0-0--2~-2-2~-2-2--3~-3-3~-3-3-3--|
|--3~-3-3~-3-3-------------------------------------------|
|--------------------------------------------------------| x3

|--------------------------------------------------------|
|-------1~-1-1-------1~-1-1-------1~-1-1-------1~-1-1-1--|
|-------0~-0-0-------0~-0-0-------0~-0-0-------0~-0-0-0--|
|-------2~-2-2--0~-0-0~-0-0--2~-2-2~-2-2--3~-3-3~-3-3-3--|
|--3~-3-3~-3-3-----------------------------

Steven Universe – Peace And Love On Planet Earth Tabs – Misc Cartoons

 -------------------------------------------------------------------------------
                             Peace & Love (On Planet Earth) - Steven Universe
-------------------------------------------------------------------------------

Provided lyrics are a rough guide.

Tuning: Standard

    Life...       love...         peace...        planet earth
e|8-----8---------7-----7---------7-----7---------5-----5---------|
B|8---------8-----8---------8-----5---------5-----5---------5-----|
G|9-----------9---9-----------9---5-----------9---5-----------5---|
D|----------------------------------------------------------------|
A|----------------------------------------------------------------|
E|----------------------------------------------------------------|

    Is there   anything...        Peace...        planet earth?
e|8-----8---------7-----7---------7-----7---------5-----5---------|
B|8---------8-----8---------8-----5---------5-----5---------5-----|
G|9-----------9---9-----------9---5-----------9---5-----------5---|
D|----------------------------------------------------------------|
A|----------------------------------------------------------------|
E|----------------------------------------------------------------|

    Come on...    Me,               the words...  key,
e|8-----8---------7---------------7-----7---------5---------------|
B|8---------8-----8---------------5---------5-----5---------------|
G|9-----------9---9---------------5-----------9---5---------------|
D|----------------------------------------------------------------|
A|----------------------------------------------------------------|
E|----------------------------------------------------------------|

    If...           if...           then...       me,
e|8-----8---------7-----7---------7-----7---------5---------------|
B|8---------8-----8---------8-----5---------5-----5---------------|
G|9-----------9---9-----------9---5-----------9---5---------------|
D|----------------------------------------------------------------|
A|----------------------------------------------------------------|
E|----------------------------------------------------------------|

    Life...       love...           Life...       love...  But using
e|8-----8---------7---------------7-----7---------5---------------|
B|8---------8-----8---------------5---------5-----5---------------|
G|9-----------9---9---------------5-----------9---5---------------|
D|----------------------------------------------------------------|
A|----------------------------------------------------------------|
E|----------------------------------------------------------------|

  mi fa mi mi fa  mi ti la    and peace...        planet earth,
e|8-----8---------7-----7---------7-----7---------5-----5---------|
B|8---------8-----8---------8-----5---------5-----5---------5-----|
G|9-----------9---9-----------9---5-----------9---5-----------5---|
D|----------------------------------------------------------------|
A|----------------------------------------------------------------|
E|----------------------------------------------------------------|
    Yes, yes, that's it...
e|8-----8---------7---------------7-----7---------5---------------|
B|8---------8-----8---------------5---------5-----5---------------|
G|9-----------9---9---------------5-----------9---5---------------|
D|----------------------------------------------------------------|
A|----------------------------------------------------------------|
E|----------------------------------------------------------------|

  You should write...                                   ...already
e|8-----8---------7-----7---------7-----7---------5-----5---------|
B|8---------8-----8---------8-----5---------5-----5---------5-----|
G|9-----------9---9-----------9---5-----------9---5-----------5---|
D|----------------------------------------------------------------|
A|----------------------------------------------------------------|
E|--------------------------------

You Spin Me Right Round Tabs – Dead Or Alive Vsion 2

 Best of the 80's CD version

Intro: e|--------------------------------------------------------------------|
       B|--------------------------------------------------------------------|
       G|--------------------------------------------------------------------| X2
       D|-4-4-4-444-444444-4-4-4-444-4-7-7-9-9-9-999-999999-9-9-9-999-999999-|
       A|-4-4-4-444-444444-4-4-4-444-4-7-7-9-9-9-999-999999-9-9-9-999-999999-|
       E|-2-2-2-222-222222-2-2-2-222-2-5-5-7-7-7-777-777777-7-7-7-777-777777-|

Verse: e|--------------------------------------------------------------------|
       B|--------------------------------------------------------------------|
       G|---------------------------------------------------------------6666-| X2
       D|-4-4-4-444-444444-4-4-4-444-4-7-7-9-9-9-999-999999-9-9-9-999-996666-|
       A|-4-4-4-444-444444-4-4-4-444-4-7-7-9-9-9-999-999999-9-9-9-999-994444-|
       E|-2-2-2-222-222222-2-2-2-222-2-5-5-7-7-7-777-777777-7-7-7-777-77-----|

          If I, if I could get to know your name

          Well if I, could trace your private number, baby

Pre-Chorus: e|-----------------------------------------------------------------|
            B|-----------------------------------------------------------------|
            G|-------------------------------------------------6-6-6-6-6-6-----|
            D|-4-4-4-4-4-4-4-4-7-7-7-7-7-7-7-7-9-9-9-9-9-9-9-9-6-6-6-6-6-6-2-2-|
            A|-4-4-4-4-4-4-4-4-7-7-7-7-7-7-7-7-9-9-9-9-9-9-9-9-4-4-4-4-4-4-2-2-|
            E|-2-2-2-2-2-2-2-2-5-5-5-5-5-5-5-5-7-7-7-7-7-7-7-7-------------0-0-|

               All I know is that to me, you look like you're lots of fun

               Open up your lovin' arms 'cause I want some, want some!

Verse: e|--------------------------------------------------------------------|
       B|--------------------------------------------------------------------|
       G|---------------------------------------------------------------6666-| X2
       D|-4-4-4-444-444444-4-4-4-444-4-7-7-9-9-9-999-999999-9-9-9-999-996666-|
       A|-4-4-4-444-444444-4-4-4-444-4-7-7-9-9-9-999-999999-9-9-9-999-994444-|
       E|-2-2-2-222-222222-2-2-2-222-2-5-5-7-7-7-777-777777-7-7-7-777-77-----|

          I set my sights on you (and no one else will do)

          And I, I've got to have my way now, baby!

Pre-Chorus: e|-----------------------------------------------------------------|
            B|-----------------------------------------------------------------|
            G|-------------------------------------------------6-6-6-6-6-6-----|
            D|-4-4-4-4-4-4-4-4-7-7-7-7-7-7-7-7-9-9-9-9-9-9-9-9-6-6-6-6-6-6-2-2-|
            A|-4-4-4-4-4-4-4-4-7-7-7-7-7-7-7-7-9-9-9-9-9-9-9-9-4-4-4-4-4-4-2-2-|
            E|-2-2-2-2-2-2-2-2-5-5-5-5-5-5-5-5-7-7-7-7-7-7-7-7-------------0-0-|

               All I know is that to me, you look like you're lots of fun

               Open up your lovin' arms...Watch out here I come!

Chorus: e|-----------------------------------------------------------------|
        B|-----------------------------------------------------------------|
        G|-------------------------------------------------4-4-4-4-6-6-6-6-| X2
        D|-4-4-4-4-4-4-4-4-7-7-7-7-2-2-2-2-4-4-4-4-4-4-4-4-4-4-4-4-6-6-6-6-|
        A|-4-4-4-4-4-4-4-4-7-7-7-7-2-2-2-2-4-4-4-4-4-4-4-4-2-2-2-2-4-4-4-4-|
        E|-2-2-2-2-2-2-2-2-5-5-5-5-0-0-0-0-2-2-2-2-2-2-2-2-----------------|

           You spin me right round, baby right round like a record, baby. Right round round round.

           You spin me right round, baby right round like a record, baby. Right round round round.

Pre-Verse: e|-----------------------------------------------------------------|
           B|-----------------------------------------------------------------|
           G|-----------------7-7-7-7-6-6-6-6-4-4-4-4-4-4-4-4-6-6-6-6-6-6-6-6-|
           D|-4-4-4-4-2-2-2-2-7-7-7-7-6-6-6-6-4-4-4-4-4-4-4-4-6-6-6-6-6-6-6-6-|
           A|-4-4-4-4-2-2-2-2-5-5-5-5-4-4-4-4-2-2-2-2-2-2-

Cant See Through It Tabs – Disco Inferno

 Disco Inferno
Can't See Through It
Technicolour 

: Saviano P.



Intro/Verse: 
               C
e|-0-0-0--||---0-------0-0-0--|
B|-1-1/3--||---1-------1-1/3--|
G|-0-0-0--||---0-(x12)-0-0-0--| 
D|-2-2/4--||---2-------2-2/4--| 
A|-3-0-0--||---3-------0-0-0--|
E|--------||------------------|

 then: 
e|-0-0-0----0------|
B|-1-1/3----1------|
G|-0-0-0----0------| 
D|-2-2/4----2------|
A|-3-0-0----3------|
E|-----------------|

e|----------------------------|
B|-0-1-3-1--0--1--0--1--0-----|
G|-0-0-0-0--0--0--0--0--0---0-| In this part you can also just play the notes on the B string and the 
D|-2-2-2-2--2--2--2--2--2-----| two notes at the end with a 2nd guitar strumming a C chord
A|-3-3-3-3--3--3--3--3--3-3---|
E|----------------------------|

The entire song is just these three parts with C almost constantly being strummed

Against It Tabs – Corners

 -------------------------------------------------------------------------------
                             Against It (Acoustic) - Corners
-------------------------------------------------------------------------------
: Lichen Black
 james.roger295

~This is my acoustic version made to sound more like the album version (simulates bass notes as well)

Tuning: Standard

INTRO:

e|-----0-------------------------------|
B|-------3-0---0-1-0---0---0-----------|
G|-----------------------2-------------| x2
D|-------------------------------------|
A|------------------000-0-0------------|
E|--000-0-0-333-3-3---------33333333---|

e|-----------------------0--|
B|-----------------------0--
G|--55-4-2---------------0--| 
D|--55-4-2-5-7-5-7-5-2---2--|
A|--33-2-0-5-7-5-7-5-2---2--|
E|---------3-5-3-5-3-0---0--|

e|-----------------------12--|
B|-----------------------12--
G|--55-4-2---------------12--| 
D|--55-4-2-5-7-5-7-5-2---12--|
A|--33-2-0-5-7-5-7-5-2-------|
E|---------3-5-3-5-3-0-------|

e|-----------------------15--|
B|-----------------------15--
G|--55-4-2---------------15--| 
D|--55-4-2-5-7-5-7-5-2---15--|
A|--33-2-0-5-7-5-7-5-2-------|
E|---------3-5-3-5-3-0-------|

e|-----------------------|
B|-----------------------
G|--55-4-2---------------| 
D|--55-4-2-5-7-5-7-5-2---|
A|--33-2-0-5-7-5-7-5-2---|
E|---------3-5-3-5-3-0---|

VERSE

e|-----0-------------------------------|
B|-------3-0---0-1-0---0---0-----------|
G|-----------------------2-------------| x2
D|-------------------------------------|
A|------------------000-0-0------------|
E|--000-0-0-333-3-3---------33333333---|

e|-----0-3-5---5-6-7---7-6-5------------|
B|--------------------------------------|
G|--------------------------------------|
D|--------------------------------------|
A|--------------------------------------|
E|--000-0-0-333-3-3-555-5-5-333333333---|

e|-----0-------------------------------|
B|-------3-0---0-1-0---0---0-----------|
G|-----------------------2-------------|
D|-------------------------------------|
A|------------------000-0-0------------|
E|--000-0-0-333-3-3---------33333333---|

CHORUS (but no singing)

e|-----------------------12--|
B|-----------------------12--
G|--55-4-2---------------12--| 
D|--55-4-2-5-7-5-7-5-2---12--|
A|--33-2-0-5-7-5-7-5-2-------|
E|---------3-5-3-5-3-0-------|

e|-----------------------15--|
B|-----------------------15--
G|--55-4-2---------------15--| 
D|--55-4-2-5-7-5-7-5-2---15--|
A|--33-2-0-5-7-5-7-5-2-------|
E|---------3-5-3-5-3-0-------|

e|----------------------3-5p0-55/3-|
B|---------------------------------
G|--55-4-2-------------------------| 
D|--55-4-2-5-7-5-7-5-2-------------|
A|--33-2-0-5-7-5-7-5-2-------------|
E|---------3-5-3-5-3-0-------------|

e|-----------------------|
B|-----------------------
G|--55-4-2---------------| 
D|--55-4-2-5-7-5-7-5-2---|
A|--33-2-0-5-7-5-7-5-2---|
E|---------3-5-3-5-3-0---|

VERSE:

e|-----0-------------------------------|
B|-------3-0---0-1-0---0---0-----------|
G|-----------------------2-------------| x2
D|-------------------------------------|
A|------------------000-0-0------------|
E|--000-0-0-333-3-3---------33333333---|

e|-----0-3-5---5-6-7---7-6-5-------3---|
B|------------------------------535-5--|
G|-------------------------------------|
D|-------------------------------------|
A|-------------------------------------|
E|--000-0-0-333-3-3-555-5-5-333--------|

e|-----0-------------------------------|
B|-------3-0---0-1-0---0---0-----------|
G|-----------------------2-------------|
D|-------------------------------------|
A|------------------000-0-0------------|
E|--000-0-0-333-3-3----------33333333--|

CHORUS:

e|-----------------------0--|
B|-----------------------0--
G|--55-4-2---------------0--| 
D|--55-4-2-5-7-5-7-5-2---2--|
A|--33-2-0-5-7-5-7-5-2---2--|
E|---------3-5-3-5-3-0---0--|

e|-------------------------3555-3---|
B|-----------------------35------5/-
G|--55-4-2--------------------------| 
D|--55-4-2-5-7-5-7

Summoned To Succumb Tabs – Cauldron

 Tune: C (down 2 step)

Intro:

PM----------------------------
C|----------------------------|
G|----------------------------|
Eb|---------------------------|
Bb|-2--2--2--2--2--2--2--2----|
F|--0--0--0--0--0--0--0--0----|
C|----------------------------|

PM----------------------------
C|----------------------------|
G|----------------------------|
Eb|---------------------------|
Bb|-------------5--5----------|
F|--3--3--3--3--3--3--5--5----|
C|--1--1--1--1--------3--3----|

PM----------------------------
C|----------------------------|
G|----------------------------|
Eb|---------------------------|
Bb|---------------------------|
F|--3--3--3--3--3--3--3--3----|
C|--1--1--1--1--1--1--1--1----|

PM----------------------------
C|----------------------------|
G|----------------------------|
Eb|---------------------------|
Bb|---------------------------|
F|--2--2--2--2--5--5--5--5----|
C|--0--0--0--0--3--3--3--3----|

PM----------------------------
C|----------------------------|
G|----------------------------|
Eb|---------------------------|
Bb|-2--2--2--2--2--2--2--2----|
F|--0--0--0--0--0--0--0--0----|
C|----------------------------|

PM----------------------------
C|----------------------------|
G|----------------------------|
Eb|---------------------------|
Bb|-------------5--5----------|
F|--3--3--3--3--3--3--5--5----|
C|--1--1--1--1--------3--3----|

PM----------------------------
C|----------------------------|
G|----------------------------|
Eb|---------------------------|
Bb|-7--7--7--7--7--7--7--7----|
F|--5--5--5--5--5--5--5--5----|
C|----------------------------|

PM----------------------------
C|----------------------------|
G|----------------------------|
Eb|---------------------------|
Bb|-5--5--5--5----------------|
F|--3--3--3--3--5--5--5--5----|
C|--------------3--3--3--3----|

harmonic thing:

  PM------------------------------------
C|------------------------------------|
G|----------10------12--10------13----|
Eb|-----12------12----------12--------|
Bb|-15--------------------------------|
F|------------------------------------|
C|------------------------------------|

  PM------------------------------------
C|------------------------------------|
G|--(13)--12----10------12----13------|
Eb|-----------------12----------------|
Bb|-----------------------------------|
F|------------------------------------|
C|------------------------------------|

PM------------------------------------
C|------------------------------------|
G|----------10------12--10------13----|
Eb|-----12------12----------12--------|
Bb|-15--------------------------------|
F|------------------------------------|
C|------------------------------------|

  PM--------------------------------------
C|--------------------------------------|
G|--(13)--12----10--13--12--12-13-12----|
Eb|----------------------------------14-|
Bb|-------------------------------------|
F|--------------------------------------|
C|--------------------------------------|
                      ~end is not 100% correct, sorry~



RIFF

   PM----       PM      PM PM       PM
C|----------------------------------------------|  
G|----------------------------------------------|  
Eb|-------5-------4------------7--------5-------| 
Bb|-------7-------5------------9--------7-------|  
F|--0--0-------0---------0--0--------0----------|  
C|----------------------------------------------|  
   
   PM------------
C|------------------------------------------------|
G|------------------------------------------------|
Eb|----------------9--7-----10----9-----9---------|
Bb|---------------10--9-----12----10----10--------|
F|--0--0--0--0--0---------------------------------|
C|------------------------------------------------|

3x, then, this:


   PM----       PM      PM PM       PM
C|----------------------------------------------|  
G|----------------------------------------------|  
Eb|-------5-------4------------7----------------| 
Bb|-------7-------5------------9--------10------|  

Tainted Love Tabs – Soft Cell Vsion 3

 Intro: e|-----------------------------------------------|
       B|-8-8~------------------------------------------|
       G|-----------------------8-8--5~---------8-8--5~-|
       D|------x-5-5~-x-5-5-8-8-8-8-85~-5-5-8-8-8-8-85~-|
       A|------x-5-5~-x-5-5-8-8-6-6-83~-5-5-8-8-6-6-83~-|
       E|------x-3-3~-x-3-3-6-6-----6---3-3-6-6-----6---|

Verse: e|-----------------------------------------------------------------|
       B|-----------------------------------------------------------------|
       G|-----------------------------------------------------------------| X2
       D|-----------------5-5-------------5-5-----------------------------|
       A|---------6-6---3-5-5-----6-6---3-5-5-----6-6---3-----------------|
       E|-3-3-6-6-----6---3-3-6-6-----6---3-3-6-6-----6---3-3-3-3-6-6-6-6-|

          Sometimes I feel I've got to run away. I got to get away from the pain you drive into the heart of me.

          The love we share seems to go nowhere. And I've lost my light. I toss and turn, I can't sleep at night

Pre-Chorus: e|---------------------------------------------------------------------------------|
            B|---------------------------------------------------------------------------------|
            G|---------------------------------------------------------------------------------|
            D|---------------------------------------------------------------------------------|
            A|---------------------------------6-6-6-6-6-6-6-6-3-3-3-3-3-3-3-3-3-3-3-3-3-3-3-3-|
            E|-3-3-3-3-3-3-3-3-6-6-6-6-6-6-6-6-------------------------------------------------|

               Once I ran to you (I ran). Now I run from you.

               This tainted love you've given, I give you all a boy could give you.

               Take my tears and that's not nearly ALL!

Chorus: e|-----------------|
        B|-----------------|
        G|---------8-8--5~-| X2
        D|-5-5-8-8-8-8-85~-|
        A|-5-5-8-8-6-6-83~-|
        E|-3-3-6-6-----6---|

           Tainted love (oh)

           Tainted love

Verse: e|-----------------------------------------------------------------|
       B|-----------------------------------------------------------------|
       G|-----------------------------------------------------------------| X2
       D|-----------------5-5-------------5-5-----------------------------|
       A|---------6-6---3-5-5-----6-6---3-5-5-----6-6---3-----------------|
       E|-3-3-6-6-----6---3-3-6-6-----6---3-3-6-6-----6---3-3-3-3-6-6-6-6-|

          Now I know I've got to run away. I got to get away, you don't really want any more from me.

          To make things right you need someone to hold you tight.

          And you think love is to pray. But I'm sorry, I don't pray that way.

Pre-Chorus: e|---------------------------------------------------------------------------------|
            B|---------------------------------------------------------------------------------|
            G|---------------------------------------------------------------------------------|
            D|---------------------------------------------------------------------------------|
            A|---------------------------------6-6-6-6-6-6-6-6-3-3-3-3-3-3-3-3-3-3-3-3-3-3-3-3-|
            E|-3-3-3-3-3-3-3-3-6-6-6-6-6-6-6-6-------------------------------------------------|

               Once I ran to you (I ran). Now I run from you.

               This tainted love you've given, I give you all a boy could give you.

               Take my tears and that's not nearly ALL!

Chorus: e|-----------------|
        B|-----------------|
        G|---------8-8--5~-| X3
        D|-5-5-8-8-8-8-85~-|
        A|-5-5-8-8-6-6-83~-|
        E|-3-3-6-6-----6---|

           Tainted love (oh)

           Tainted love

           Don't touch me, please, for I cannot stand the way you tease.

        e|---------------------------------|
        B|---------------------------------|
        G|----------------------------

Todo Va A Arder Tabs – Diamante Eléctrico

 : algove96
 algove96@hotmail.com

Tuning: Standard

Canción nominada al Grammy Latino como mejor canción rock. Album "B" (2015)
Latin Grammy nominated for "best rock song". B (2015)


                 E7*                          E7          B             C#             G              E  
e|------0-------0------0-------0---|      e|--7--|    e|--7--|      e|--9--|       e|--3--|       e|--5--| 
B|--------3-------3------3-------3-|      B|--9--|    B|--7--|      B|--9--|       B|--3--|       B|--5--|      
G|---------------------------------|      G|--7--|    G|--8--|      G|--10-|       G|--4--|       G|--6--|     
D|---------------------------------|      D|--9--|    D|--9--|      D|--11-|       D|--5--|       D|--7--|      
A|---2-----------------------------|      A|--7--|    A|--9--|      A|--11-|       A|--5--|       A|--7--|      
E|-0---------0-------0-------0-----|      E|-----|    E|--7--|      E|--9--|       E|--3--|       E|--5--|      



Intro: E7


            E7
Hagámonos mierda
            B
Resistirnos al destino
            C#              E7
Bajemos al abismo, te quiebras
      B
Somos del mismo cemento
     C#
Una causa y un efecto

E7*
Ahora mátame si quieres
G                E
No hay donde correr
E7*                           G
Estoy perdido he decidido que
               E
Entre tu y yo todo va a arder

E7
                                             _
            E7                                |
Hagámonos mierda                              |
            B                                 |
Acumulemos cicatrices                         |
            C#                   E7           |--> Acá el ritmo es corchea-negra y NO negra-negra como antes
y polvo entre las luces, me lleva             |    Rithm in here is quaver-crotchet INSTEAD of crotchet-crotchet
             B                                |
Si me veo en tu reflejo                       |
       C#                                     |
Comparteme tu infierno                       _|


E7*
Ahora mátame si quieres
G                E
No hay donde correr
E7*                           G
Estoy perdido he decidido que
               E
Entre tu y yo todo va a arder


SOLO
El solo está en la escala de E Menor Pentatónica (E Pentatonic Minor Scale). Estoy casi 100% seguro del solo 
pero si a alguien no le parece puede improvisar sobre la escala  

e|-----------------------------------------------------------------------------|
B|-----------------------------------------------------------------------------|
G|------------------------------------7-----------------7----------------------|
D|------5-7-5-7b---5-------------7/9----9-7-7-5----7/9----9-7-7-5---/7--5------|  |7b| se puede tocar |7/8\7|
A|--5h7--------------7\------5h7-----------------7----------------7-------7\---|
E|-----------------------------------------------------------------------------|

e|-----------------------------------------------------------------------------|
B|--------------------------------------------8b---------------8-8-------------|
G|-----------7-----------------7-9p7h9--7-9-7-----7-9---7-9-7------7-9--7-9-7--|
D|------7/9----9-7-7-5----7/9--------------------------------------------------|
A|--5h7-----------------7------------------------------------------------------|
E|-----------------------------------------------------------------------------|

e|-----------------------------------------------------------------------------|
B|--8-10-10pb-10pb---10pbr8-8--10p8-------8brb------8-----8-----8/10-8---------|    |10b| se puede tocar |12|
G|-------------------------9--------9p7h9------9p7-9--7-9---7-9-------7-9-9h7--|    |10pbr8| como |12p10p8| 
D|------------------------------------------------9--------------------------9-|    |8brb| como |8/9\8|
A|-----------------------------------------------------------------------------|
E|-----------------------------------------------------------------------------|

e|--------------------------------------

Daisy Tabs – Laura Marling

 Hi!  ever so please forgive me, it's not entirely accurate 
Wrote it down from JustMoray on youtube who picked it up so nicely, many thanks to him! :-)



Laura Marling – Daisy 

Open D (DADF#AD)


Intro:
d------------------------------------------------------------------------| 
a------------------------------------------------------------------------| 
F#---------------------------------------1-----3----5----7---5---4-------| 
D---4---2---0----------------------------2-----4----5----7---5---5-------| 
A---------------4---2---0-------0--------0-----0----0----0---0---0-------| 
D---------------------------4-------2----2-----4----5----7---5---5----12-| 


Verse (2x):
d----------------------------------------------0----0----0----0----0-----0------| 
a-------------------------------------------------------------------------------| 
F#-------------------------------1-----3----5----7----8----7----5-----4---------| 
D---4--2--0----------------------2-----4----5----7----9----7----5-----5---------| 
A-------------4--2--0-----0------0-----0----0----0----0----0----0-----0---------| 
D----------------------4-----2---2-----4----5----7----9----7----5-----5-----12--| 

Daisy lives by the docks
Down at the white rock
Running an open home
Daisy lives by the sea
I only see Daisy 
When she wants to see me


Chorus:
d------------------0----0-----------------| 
a-----------------------------------------| 
F#---12----10----8----7----5----4---------| 
D----12----11----9----7----5----5---------| 
A----0-----0-----0----0----0----0---------| 
D----12----11----9----7----5----5---------| 

Daisy's alright
She's up all night
Down at the docks 
Running an open home



d------------------0---------0-------------------0---------------0----| 
a---------------------------------------------------------------------| 
F#-----8--------------7------------------8-------------------7--------| 
D------9--------------7------------------9-------------------7--------| 
A------0--------------0------------------0-------------------0--------| 
D------9--------------7------------------9-------------------7--------| 

I think that you look at her wrong, I think that you look at us all wrong


d------------------0----0----------------------------| 
a----------------------------------------------------| 
F#---8----7-------------8---7----5----4--------------| 
D----9----7-------------9---7----5----5--------------| 
A----0----0-------------0---0----0----0--------------| 
D----9----7-------------9---7----5----5------12------| 

A woman alone is not a woman undone


Play intro

Verse (2x)
d----------------------------------------------0----0----0----0----0-----0------| 
a-------------------------------------------------------------------------------| 
F#-------------------------------1-----3----5----7----8----7----5-----4---------| 
D---4--2--0----------------------2-----4----5----7----9----7----5-----5---------| 
A-------------4--2--0-----0------0-----0----0----0----0----0----0-----0---------| 
D----------------------4-----2---2-----4----5----7----9----7----5-----5-----12--| 

Daisy met a man from Sicily
Sailed in one day and told her 
Who she was going to be 
O did he look at her strange
For no one and nobody
Is Daisy going to change

Chorus
Daisy's alright 
She's up all night Down at the docks 
Running an open home
I think that you look at her wrong
I think that you look at us all wrong
Woman alone is not a woman undone


Bridge (2x)
d----------------9--7---------------7--0-------------------12------| 
a----9--------9--------9---7-----7--------5---4---5---7----12------| 
F#---8-----8---------------7-----7--------5---3---5---7----12------| 
D-------0---------------------0------------------------------------| 
A------------------------------------------------------------------| 
D------------------------------------------------------------------| 


Verse
Daisy's got a baby now
She called her Angelina 
So she'd stand out of the crowd
Daisy doesn't care

Starry Eyed Acoustic intro Tabs – Ellie Goulding Vsion 2

 capo 1
Little noise session version

Awesome version of a very nice song :-)
listen to the song to hear which notes should be the loudest, since some are subtle and some are powerful.

watch: https://www.youtube.com/watch?v=EC_LtEuqF_E

the second line has some high notes from a synthesizer. Therefor the first Em and Em/G havebeen raised,
as to make the D string the bass-string.

tab and chords are relative to capo 1.

enjoy:

  Em                D                 Am7               Em/G
e|-----------------|--------2--------|-----------------|-----------------|
B|------0----------|------3----------|------1----------|------0---0------|
G|----------0------|----2------------|-----------------|-----------------|
D|-----------------|0-----------0-0--|--2-------2------|-----------------|
A|--2--------------|-----------------|0---0---------0--|--2--------------|
E|0----------------|-----------------|-----------------|3---3------------|

  Em                D                 Am7               Em/G
e|3----------------|--------2--------|-----------------|-----------------|
B|5-----0---0------|3-----3----------|1-----1----------|6----------------|
G|4----------------|2---2------------|0----------------|5----------------|
D|-----------------|------------0-0--|----------2------|6----------------|
A|-----------------|-----------------|--------------0--|-----------------|
E|-----------------|-----------------|-----------------|-----------------|




************************************

| /   slide up
| \   slide down
| h   hammer-on
| p   pull-off
| ~   vibrato
| +   harmonic
| x   Mute note
| b   Bend
| pb  Pre-bend
| br  Bend release
| pbr Pre-bend release
| brb Bend release bend

************************************

Funky Cold Medina Tabs – Tone-Lōc Vsion 2

 Tab at top to middle of page, lyrics at middle to bottom of page. Too many lyrics to fit with the tab, as
simple as it is.

Intro: e|---------------------------------------------------------------|
       B|-------------------xx66~---------------------------------------|
       G|-------------------xx55~-xx55~-------------------------5-5-----|
       D|-xx55~-xx55~-xx55~-xx33~-xx55~-xx55~-xx55~-xx55~-xx55~-5-5-45~-|
       A|-xx55~-xx55~-xx55~-------xx33~-xx55~-xx55~-xx55~-xx55~-3-3-45~-|
       E|-xx33~-xx33~-xx33~-------------xx33~-xx33~-xx33~-xx33~-----23~-|

First Verse: e|-----|  e|-------------|  e|-----|  e|-----|
             B|-----|  B|-------------|  B|-----|  B|-----|
             G|-----|  G|-----5-5-----|  G|-----|  G|-----|
             D|-55~-|  D|-55~-5-5-45~-|  D|-55~-|  D|-55~-|
             A|-55~-|  A|-55~-3-3-45~-|  A|-55~-|  A|-55~-|
             E|-33~-|  E|-33~-----23~-|  E|-33~-|  E|-33~-|

Chorus: e|---------------------------------------------------------------|
        B|-------------------xx66~---------------------------------------|
        G|-------------------xx55~-xx55~-------------------------5-5-----|
        D|-xx55~-xx55~-xx55~-xx33~-xx55~-xx55~-xx55~-xx55~-xx55~-5-5-45~-|
        A|-xx55~-xx55~-xx55~-------xx33~-xx55~-xx55~-xx55~-xx55~-3-3-45~-|
        E|-xx33~-xx33~-xx33~-------------xx33~-xx33~-xx33~-xx33~-----23~-|

Second Verse: e|-----|  e|-------------|  e|-----|  e|-----|
              B|-----|  B|-------------|  B|-----|  B|-----|
              G|-----|  G|-----5-5-----|  G|-----|  G|-----|
              D|-55~-|  D|-55~-5-5-45~-|  D|-55~-|  D|-55~-|
              A|-55~-|  A|-55~-3-3-45~-|  A|-55~-|  A|-55~-|
              E|-33~-|  E|-33~-----23~-|  E|-33~-|  E|-33~-|

Chorus: e|---------------------------------------------------------------|
        B|-------------------xx66~---------------------------------------|
        G|-------------------xx55~-xx55~-------------------------5-5-----|
        D|-xx55~-xx55~-xx55~-xx33~-xx55~-xx55~-xx55~-xx55~-xx55~-5-5-45~-|
        A|-xx55~-xx55~-xx55~-------xx33~-xx55~-xx55~-xx55~-xx55~-3-3-45~-|
        E|-xx33~-xx33~-xx33~-------------xx33~-xx33~-xx33~-xx33~-----23~-|

Third Verse: e|-----|  e|-------------|  e|-----|  e|-----|
             B|-----|  B|-------------|  B|-----|  B|-----|
             G|-----|  G|-----5-5-----|  G|-----|  G|-----|
             D|-55~-|  D|-55~-5-5-45~-|  D|-55~-|  D|-55~-|
             A|-55~-|  A|-55~-3-3-45~-|  A|-55~-|  A|-55~-|
             E|-33~-|  E|-33~-----23~-|  E|-33~-|  E|-33~-|

Chorus: e|---------------------------------------------------------------|
        B|-------------------xx66~---------------------------------------|
        G|-------------------xx55~-xx55~-------------------------5-5-----|
        D|-xx55~-xx55~-xx55~-xx33~-xx55~-xx55~-xx55~-xx55~-xx55~-5-5-45~-|
        A|-xx55~-xx55~-xx55~-------xx33~-xx55~-xx55~-xx55~-xx55~-3-3-45~-|
        E|-xx33~-xx33~-xx33~-------------xx33~-xx33~-xx33~-xx33~-----23~-|

Bridge: e|---------------------------------------------------------------|
        B|-------------------xx66~---------------------------------------|
        G|-------------------xx55~-xx55~-------------------------5-5-----| (P.M. entirely first time)
        D|-xx55~-xx55~-xx55~-xx33~-xx55~-xx55~-xx55~-xx55~-xx55~-5-5-45~-|
        A|-xx55~-xx55~-xx55~-------xx33~-xx55~-xx55~-xx55~-xx55~-3-3-45~-|
        E|-xx33~-xx33~-xx33~-------------xx33~-xx33~-xx33~-xx33~-----23~-|

Fourth Verse: e|-----|  e|-------------|  e|-----|  e|-----|
              B|-----|  B|-------------|  B|-----|  B|-----|
              G|-----|  G|-----5-5-----|  G|-----|  G|-----|
              D|-55~-|  D|-55~-5-5-45~-|  D|-55~-|  D|-55~-|
              A|-55~-|  A|-55~-3-3-45~-|  A|-55~-|  A|-55~-|
              E|-33~-|  E|-33~-----23~-|  E|-33~-|  E|-33~-|

Outro Chorus: e|---------------------------------------------------------------|
              B|-------------------xx66~---------------