Tag: Tempo

Hoje É Tempo chords by Asaph Borba

 E F#m7/E G#m7/E F#m7/E 
Hoje é tempo de louvar a Deus
 E F#m7/E D A/B 
Em nós agora habita o seu Espírito
 A B E C#m7 A B E C#m7 
Então é só cantar e a Cristo exaltar
 A F#m7 D A/B 
E sua glória encherá esse lugar


 E F#m7/E G#m7/E F#m7/E 
Vem louvar, Vem louvar 
 E F#m7/E G#m7/E F#m7/E 
Vem louvar, Vem louvar


 E F#m7/E G#m7/E F#m7/E 
No meio dos louvores Deus habita 
 E F#m7/E D A/B 
E é seu prazer cumprir o que nos diz
 A B E C#m7 A B E C#m7 
Então é só cantar e a Cristo exaltar
 A F#m7 D A/B 
E sua glória encherá esse lugar


 E F#m7/E G#m7/E F#m7/E 
Vem louvar, Vem louvar 
 E F#m7/E G#m7/E F#m7/E 
Vem louvar, Vem louvar

---------------------
Thanks to JLS Org.© 2013 to chordify the song. 

All I Ever Wanted chords – Brian Melo V6

 Brian Melo - All I Ever Wanted
Tuning: Standard (E A D G B E)
Key: C# major (C# D# E# F# G# A# B# C#) with A capo on the first fret, 
 C  major (C  D E F G A B  C) without
Tempo: 169 bpm
 Robert from Astlessons
Link to my tutorial on YouTube: http://youtu.be/UZSXXbpuBZk

No disrespect intended towards previous uploaders, there has been some good transcriptions, 
but there is a few chords/details that I felt needed clarification in a new version. But not 
that it matters too much of course, just play the one you think sounds best:D



[Intro]:  C Cmaj7 F C Cmaj7 F C Cmaj7 F C Cmaj7 F 
Slow down, make it last, I'm having the time of my life
      C Cmaj7 F Dm F 
And take a photograph, I don't wanna leave this behind
       C Cmaj7 F C Cmaj7 F 
What seems so out of reach, we're holding it right in our hands
        C Cmaj7 F Dm F 
Let's give up everything, let's jump in and never look back
        Dm F G 
Let's jump in and never look back

         F C G F C G      (A5 G5)
This is all I ever wanted, but life got in my way
        F C G Am F C G 
You're all I ever wanted, I didn't see how it could change
       F C G F 
That something was missing until today

      C Cmaj7 F C Cmaj7 F 
The city comes alive, as soon as you walk through the door
   C Cmaj7 F Dm F 
Another sleepless night, but I don't wanna sleep anymore
    Dm F G 
I don't wanna sleep anymore

         F C G F C G      (A5 G5)
This is all I ever wanted, but life got in my way
        F C G Am F C G 
You're all I ever wanted, I didn't see how it could change
       F C G Am 
That something was missing until today

(Am)          F C G Am 
Climbing so high, just don't look down, we can see everything from here
                 F C G F 
For once in my life, feet off the ground, don't wanna come back down

     C Cmaj7 F C Cmaj7 F 
So take a photograph, we're having the time of our lives

          C G F C G      (A5 G5)
This is all I ever wanted, but life got in my way
        F C G Am F C G 
You're all I ever wanted, I didn't see how it could change
         F C G F C G   (A5 G5)
This is all I ever wanted, nothing will get in the way
        F C G Am F C G 
You're all I ever wanted, I knew it, somehow it could change
            F C G F 
I d

Uprising chords – Muse V3

 Tempo = 132

Intro:
 Dm           | Dm           | Dm           | Dm           |

 Dm           | Dm           | Gm           | F            |
 A            | A            | Gm           | F A / C#   |

 Dm           | Dm           | Gm           | F G#dim7 |
 A            | A            | Gm           | F A / C#   | 

 Dm           | Dm           | Dm           | Dm           |

Verse:
 Dm 
 Paranoia is in bloom, the PR
 Gm F 
 A transmissions will resume
                A 
 They'll try to push drugs an

 Keep us all dumbed down an hope the
 Gm F A/C# Dm 
 We will never see the truth around, (so come on)

                    Dm 
 Another promise, another scene, another
 Gm F G#dim7 
 A packaged lie to keep us trapped in greed
 A 
 An all the green belts wrapped around our minds
             Gm F A/C#                    
 An endless red tape to keep the truth confined, (so come on)

 Dm      | Dm      | Dm      | Dm      |

Chorus:
 Dm Gm F 
They will not force us
 A Gm F A/C#             
They will stop degrading us
 Dm Gm F   G#dim7
They will not control us
 A Gm F A/C#                     
We will be victo-rious, (so come on)

 Dm           | Dm           | Dm           | Dm           |

2nd Verse:
 Dm 
 Interchangin mind control
              Gm F 
 Come let the revolution take its toll if you could
 A 
 A Flick a switch an open your third eye, you'd see that
 Gm F A/C# Dm 
 We should never be afraid to die, (so come on)

                      Dm 
 Rise up an take the power back, it's time the
 Gm F        G#dim7
 A fat cats had a heart attack, you know the
 A 
 Their times comin to an end
            Gm F A/C#                  
 We have to unify an watch our flag ascend, (so come on)

 Dm           | Dm           | Dm           | Dm           |

2nd Chorus:
 Dm Gm F 
They will not force us
 A Gm F A/C#           
They will stop degrading us
 Dm Gm F   G#dim7
They will not control us
 A Gm F A/C#                     
We will be victo-rious, (so come on)

 Dm           | Dm           | Dm           | Dm           |

Solo: 
 Dm           | Dm           | Gm           | F            |
 A            | A            | Gm           | F A /C#  |

 Dm           | Dm           | Gm           | F            |
 A            | A            | Gm           | F A /C#  |

 Dm  

Ordinary Man chords – Eels V4

 -------------------------------------------------------------------------------
                              Eels - Ordinary Man
-------------------------------------------------------------------------------
Album : Hombre Lobo (2009)
Tempo : 75
 gwendal.mollo@orange.fr
: newg

Check my guitar pro tab for more.

Chords :
First  G  : x20003
 Csus2/B  : x2001x
Bridge (after the 2nd chorus), play in arpegio
 C/G  : xxx12.13.12
 Gm   : xxx12.12.10
 Am/E  : xxx9.10.8
 G/D  : xxx787
 F    : xxx10.10.8
 Em   : xxx987
 Dm   : xxx765
 G/B  : xxx433

Intro (before the C, there are two note: G & A):

 C G Am G F Em Dm G C G Am G 
Well, it's another warm day in the city of cold hearts
      F Em Dm G 
They all just play the part of who they are
         C G Am G 
And I'm here on my own, I'd rather be alone
      F Em Dm G 
Than try to be someone that I'm not

     F G 
And you seem like someone who could
   C Csus2/B Am G     
Appre--ciate     the fact that 
 F G C G Am G F Em Dm G 
I'm no ordinary man

     C G Am G 
And it's misunderstood what you've heard about me
   F Em Dm G 
I see why you would doubt me,   but know this
 C G Am G 
No one has the right until they've fought my fight
    F Em Dm G 
To understand just where I'm    coming from

     F G 
And it's that fight that brought me here today
   C Csus2/B Am G     
Exactly as      I am 
 F G C/G Gm Am/E G/D F Em Dm G/B 
no ordinary man

 C G Am G F Em Dm G  (Arpergio)

               C G Am G 
Well, it's another warm day in the city of cold hearts
    F Em Dm G 
It ends before it starts in their maze
     C G Am G 
But you, you're not like that, you know where it's at
     F Em Dm G 
The only rules you follow are your own


     F G 
And you seem like someone who could
   C Csus2/B Am G     
Appre--ciate     the fact that 
 F G C G Am G F Em Dm G 
I'm no ordinary man

 C G Am G F Em Dm G  x2
 C

Youre My Friend Tabs by Eels

 -------------------------------------------------------------------------------
                              Eels - You're My Friend
-------------------------------------------------------------------------------
Album : Wonderful Glorious (2012)
Tempo : 78
 gwendal.mollo@orange.fr
: newg

intro : 
    C         B                   Em      G         D5
E |----------------------------|----------------------------|
B |-----------------4-----4----|----------------------------|
G |--------5--------4-----4----|--------0--------4-----7----|
D |-----5--------4-----4-------|--------2--------5----------|
A |--3--------2----------------|-----2--------5-----5-------|
E |----------------------------|--0--------3----------------|

    C         B7                 Em        G        B5
e |----------------------------|----------------------------|
B |--------5-------------------|----------------------------|
G |--------5--------2----------|--------0--------4-----0----|
D |-----5--------1--4--4--1----|--------2--------5-----0----|
A |--3-------------------------|-----2--------5-----2-------|
E |-----------2----------------|--0--------3----------------|

Verses : 
    C         B                   Em      G         
E |----------------------------|----------------------------|
B |-----------------4-----4----|----------------------------|
G |--------5--------4-----4----|--------0--------4----------|
D |-----5--------4-----4-------|--------2--------5----------|
A |--3--------2----------------|-----2--------5------5------|
E |----------------------------|--0--------3----------------|

    C         B7                 Em        G        
e |----------------------------|----------------------------|
B |--------5-------------------|----------------------------|
G |--------5--------2----------|--------0--------4----------|
D |-----5--------1--4--4--1----|--------2--------5----------|
A |--3-------------------------|-----2--------5-----5-------|
E |-----------2----------------|--0--------3----------------|


Chorus :
    F#m                          B
E |----------------------------|----------------------------|
B |----------------------------|--------4--------4-----4----|
G |--------2--------2----------|--------4--------4-----4----|
D |--------4--------4----------|-----4--------4-----4-------|
A |-----4--------4-------------|--2--------2----------------|
E |--2--------2--------2-------|----------------------------|

   Em
e |----------------------------|----------------------------|
B |----------------------------|----------------------------|
G |--------0--------0----------|-------2----------2---------|
D |--------2--------2----------|-------3----------3---------|
A |-----2--------2-----2-------|----3----------3-----3------|
E |-0--------0-----------0-----|-1----------1---------------|

     B                           B
E |----------------------------|----------------------------|
B |--------4--------4-----4----|--------4--------4-----4----|
G |--------4--------4-----4----|--------4--------4-----4----|
D |-----4--------4-----4-------|-----4--------4-----4-------|
A |--2--------2----------------|--2--------2----------------|
E |----------------------------|----------------------------|

Youre My Friend Chords – Eels

 -------------------------------------------------------------------------------
                              Eels - You're My Friend
-------------------------------------------------------------------------------
Album : Wonderful Glorious (2012)
Tempo : 78
 gwendal.mollo@orange.fr
: newg

Intro
 C B Em G D5 C B7 Em G B5 F#m B Em C B Em G  
   You're my friend, you've done a lot of really nice things for me
 C B7 Em G  
   And I won't forget 'em, do you know how much you mean to me
 C B Em G  
   You're my friend and no matter what I'm doing you were there for me
 C B7 Em G  
   Without you my ship would surely drift out lost at sea  

[Chorus]
 F#m B 
   Just when I think I've handed you too much
 Em F 
   You always find a way to come through in the clutch
 B B 
   And you don't make me feel I owe you, but I do

 C B Em G  
   You're my friend from the day we met till the bitter end
 C B7 Em G  
   I don't know how I could have made it any other way
 C B Em G  
   Yeah, you're my friend coming through again and again,
      C B7 Em G  
Your good will, I never will betray

 C B Em G  
   Sweet charity, all the nice things that you do for me
 C B7 Em G  
   I can't forget 'em, do you know how much that means to me?
 C B Em G  
   Sweet charity, no matter how I screwed up you were there for me
 C B7 Em G  
   Without you I can't say how dark the days would be

[Chorus]

 C B Em G  
   You're my friend from the day we met till the bitter end
 C B7 Em G  
   I don't know how I could have made it any other way
 C B Em G  
   You're my friend, coming through again and again
      C B7 Em G  
Your good will, I never will betray

[Chorus]

 C B Em G C B7 Em G C B Em G  
   You're my friend from the day we met till the bitter end
 C B7 Em G  
   I don't know how I could have made it any other way
 C B Em G  
   Yeah, you're my friend, coming through again and again
      C B7 Em G  
Your good will, I never will betray

 C B Em G  
   You're my friend

 C B7 Em G C B Em G C B7 Em G

This Will Be The Day Tabs by Jeff Williams V2

 -------------------------------------------------------------------------------
                             This Will Be The Day - Jeff Williams
-------------------------------------------------------------------------------
: Michael Yu

Tuning: Drop D

Tempo: 190 bpm

This is the rhythm guitar part.

 INTRO             VERSE 1
 *6 times          *4 times          *3 times
e|-----------------|-----------------|-----------------|-----------------|
B|-----------------|-----------------|-----------------|-----------------|
G|----------------*|----------------*|----------------*|-----------------|
D|----------------*|----------------*|----------------*|-----------------|
A|-0-0-0-3-2-0-2-3-|-5-5-5-5-5-5-5-5-|-1-1-1-1-1-1-1-1-|-1-1-1-1---------|
D|-0-0-0-3-2-0-2-3-|-----------------|-----------------|-----------------|

 *4 times
e|-----------------|-----------------|-----------------|-----------------|
B|-----------------|-----------------|-----------------|-----------------|
G|----------------*|-----------------|-----------------|-----------------|
D|----------------*|-2-----3---x-2---|---3---x-2---3---|-2-----3-----3---|
A|-0-0-0-3-2-0-2-3-|-1-----1---x-1---|---1---x-1---1---|-1-----1-----1---|
D|-0-0-0-3-2-0-2-3-|-----------------|-----------------|-----------------|

                   PRE-CHORUS
                   *2 times
e|-----------------|-----------------|-----------------|-----------------|
B|-----------------|-----------------|-----------------|-----------------|
G|-----------------|----------------*|-----------------|-----------------|
D|-----------------|----------------*|-2---------------|-----------------|
A|-----3-----------|-1-1-1-1-1-1-1-1-|-0-0-0-0-0-0-0-0-|-0-0-0-0-0-0---5-|
D|-2-3---2-3-2~~~~~|-----------------|-----------------|-------------6-5-|

e|-----------------|-----------------|-----------------|-----------------|
B|-----------------|-----------------|-----------------|-----------------|
G|-----------------|-----------------|-------------5---|-----------------|
D|-----------5---5-|-----5---------2-|---2-2-2-2-2---5-|---5-x-----------|
A|-----5-5-5-5---5-|-----5---------0-|---0-0-0-0-0---3-|---3-x-4~~~~~~~~~|
D|-----5---------5-|---5-5-5-5-5-5---|-----------------|-----------------|

 CHORUS
 *3 times
e|-----------------|-----------------|-----------------|-----------------|
B|-----------------|-----------------|-----------------|-----------------|
G|----------------*|-----------------|-----------------|-----------------|
D|----------------*|---------------10|-----------101010|-1010101010101010\
A|-0-0-0-0-0-0-0-0-|-0-0-0-0-0-0-0-8-|---8-8-8-8-8-8-8-|-8-8-8-8-8-8-8-8-|
D|-0-0-0-0-0-0-0-0-|-0-0-0-0-0-0-0-8-|---8-8-8-8-8-8-8-|-8-8-8-8-8-8-8-8-|

                                     *2 times
e|-----------------|-----------------|-----------------|-----------------|
B|-----------------|-----------------|-----------------|-----------------|
G|-----------------|-----------------|----------------*|-----------------|
D|\5-5-5-5-5-5-5-5-|-5-7-7-7-7-7-7-7-|----------------*|-----------10--10|
A|---3-3-3-3-3-3-3-|-3-5-5-5-5-5-5-5-|-0-0-0-0-0-0-0-0-|-0-0-0-0-0-0-0-0-|
D|---3-3-3-3-3-3-3-|-3-5-5-5-5-5-5-5-|-0-0-0-0-0-0-0-0-|-0-0-0-0-0-0-0-0-|

e|-----------------|-----------------|-----------------|-----------------|
B|-----------------|-----------------|-----------------|-----------------|
G|-----------------|-----------------|-----------------|-----------------|
D|-10101010------10|---10101010101010|-1010101010101010|---1010101010107-|
A|-0-0-0-0-0-0-0-8-|---8-8-8-8-8-8-10|-101010101010108-|---8-8-8-8-8-8-5-|
D|-0-0-0-0-0-0-0-8-|---8-8-8-8-8-8-8-|-8-8-8-8-8-8-8-8-|---8-8-8-8-8-8-0-|

e|-----------------|-----------------|-----------------|-----------------|
B|-----------------|-----------------|-----------------|-----------------|
G|-----------------|-----------------|-----------------|-----------------|
D|---7-7---------10|

Final Fantasy Ix – Pandemonium The Castle Frozen In Time Tabs

 This is my first ASCII tab, I hope you like it. (The bars are sorted by number) 
The Bar numbering might be jumbled with the chord names.

Game - Final Fantasy IX
Composer - Nobuo Uematsu
Time Signature - 4/4 
Tempo - Quarter Note = 70 (70bpm)
Tuning - Standard E (EADGBE)

DmM7 = Dm (maj 7)

Legend
L - Tied note
x - Dead note
h - Hammer on/Pull off
b - Bend
s - Slide
~ - Vibrato
g - Ghost note
> - Accentuated note
t - Trill
M - Palm mute
. - Staccato
P - Popping (Bass)
S - Slapping (Bass)
+ - Tapping
W - Wide vibrato

Map Of The Problematique Chords – Muse V3

 This being my favourite song by my favourite band,I thought I'd find a way to get 
around this song acoustically a bit easier.Its the same four notes without, and 
listening to the song will help you figure out the tempo and whatnot.

~~CAPO 3RD~~

 Am C F Dm 
Fear and panic in the air
 Am C 
I want to be free
        F Dm 
From desolation and despair
 Am C F Dm 
And I feel like everything I saw
 Am C 
Is being swept away
        F Dm 
Well I refuse to let you go
                 Am C F Dm 
I can't get it right
        Am C F Dm 
Get it right

Since I met you

 Am C F Dm  x2

 Am C F Dm 
Loneliness be over
                Am C F Dm 
When will this loneliness be over

 Am  x4

 Am C F Dm  x2

 Am C F Dm 
Life will flash before my eyes
                  Am 
So scattered and lost
 C F Dm 
I want to touch the other side
       Am C F Dm 
And no one thinks they are to blame
              Am 
Why can't we see
 C F Dm 
That when we bleed we bleed the same

                Am C F Dm 
I can't get it right
        Am C F Dm 
Get it right
               Am C F Dm  x2   
Since I met you

 Am C F Dm 
Loneliness be over
                Am C F Dm 
When will this loneliness be over
 Am C F Dm 
Loneliness be over
                Am C F Dm 
When will this loneliness be over

 Am  x4

End on  Am

Wonderful Glorious Chords – Eels

 -------------------------------------------------------------------------------
                              Eels - Wonderful, Glorious
-------------------------------------------------------------------------------
Album : Wonderful Glorious (2012)
Tempo : 116
 gwendal.mollo@orange.fr
: newg

Chords for the intro :
F#m : x9.11.11.10.9 Bm : 799777 
Just one strum for the verses.

Intro 
 F#m Bm  x4

 F#m Bm 
   The sum of all your experiences
 F#m Bm 
   A living breathing result of the fight
 F#m Bm 
   And every night you spent shrouded in darkness
 F#m Bm 
   Has led you to this moment in the light, it's alright

 F#m Bm 
        Wonderful, 
 F#m Bm 
        Glorious
 F#m Bm 
        Wonderful, 
 F#m Bm 
        Glorious

 E G# C#m C G# F#m E 
Ahh ahh ahh ah, ah ah...

 F#m F#m Bm 
        Wonderful, 
 F#m Bm 
        Glorious

 F#m Bm 
    The sum of all the love inside your heart
 F#m Bm 
    Will get you through your plight, it's alright

 F#m  

Riff x4

riff
   My love is beautiful, it's here for the taking
   It's strong and pure and utterly earth shaking
riff
   My love has brought me here to show you it's true
   A wretch like me, you'll make it through 

riff x2
 E 

*************************************************************************

Riff :
e|----4--------4---|----4--------4---|---4---------4---|---4---------4---|
B|-5-----5---5---5-|-3----3----3---3-|-2---2-----2---2-|-1---1-----1---1-|
G|-----------------|-----------------|-----------------|-----------------|
D|-----------------|-----------------|-----------------|-----------------|
A|-----------------|-----------------|-----------------|-----------------|
E|-----------------|-----------------|-----------------|-----------------|

Totally Confused Chords – Beck

 -------------------------------------------------------------------------------
                              Beck - Totally Confused
-------------------------------------------------------------------------------
Album : Stray Blues
Tempo : 85
E-mail: gwendal.mollo@orange.fr
Tabbed by: newg

Capo on 3 (No capo for the "Golden Feelings" version)

 D F A F#m  x2

     D F A F#m 
I'm totally confused     by you     x2

 D F A F#m 
Ten foot man      makin' my lunch
        D F A F#m 
You'll never understand     I want you so much


 F#m A B 
    And I never, never want it
 F#m A B 
    And I never, never want it
 F#m A         
    And I never, never want it


     D F A F#m 
I'm totally confused     by you     x2

 D F A F#m 
Screamin' in my face     Whisper in my ear
 D F A F#m 
Put me in a suitcase     With the can of beer


 F#m A B 
    And I never, never want it
 F#m A B 
    And I never, never want it
 F#m A         
    And I never, never want it

 D F A F#m  x2

Im On Fire Chords – Bruce Springsteen V6

 I'm On Fire                                Tempo: 177 / Tonart: E
(Bruce Springsteen)


---- ---- ---- ---- 

[Intro: ]

 E E                    
---- ---- ---- ---- ---- ---- ---- ---- ---- ---- ---- ---- 

                     C#m                                      
---- ---- ---- ---- ---- ---- ---- ---- ---- ---- ---- ---- 

 C#m E                    
---- ---- ---- ---- ---- ---- ---- ---- ---- ---- ---- ---- 

                     E                                        
---- ---- ---- ---- ---- ---- ---- ---- ---- ---- ---- ---- 

 C#m C#m                  
---- ---- ---- ---- ---- ---- ---- ---- ---- ---- ---- ---- 

---- ---- ---- 

[Chorus 1: ]

      E E                 
Hey, little girl, is your daddy home, did he go and leave you 

                A C#m                        
all alone, hmm hmm. I got a bad desire, ---- ---- ---- ---- 

 A B E                     
oh oh oh, I'm on fire. ---- ---- ---- 

[Chorus 2: ]

      E E          
Tell me now baby, is he good to you, and can he do to you 

                           A C#m      
the things, that I do, oh no. I can take you higher, 

                     A B E                          
---- ---- ---- ---- oh oh oh, I'm on fire. ---- ---- ---- ---- 

[Interlude 1: ]

 C#m C#m                  
---- ---- ---- ---- ---- ---- ---- ---- ---- ---- ---- ---- 

                     E                                        
---- ---- ---- ---- ---- ---- ---- ---- ---- ---- ---- ---- 

 E C#m                  
---- ---- ---- ---- ---- ---- ---- ---- ---- ---- ---- ---- 

                     C#m                                      
---- ---- ---- ---- ---- ---- ---- ---- ---- ---- ---- ---- 

 E E                    
---- ---- ---- ---- ---- ---- ---- ---- ---- ---- ---- ---- 

[Vers 1: ]

                     A                                           
Sometimes it's like someone took a knife, baby, edgy and dull, 

           E C#m                  
and cut a six inch valley through the middle of my skull. 

 C#m                            
---- ---- ---- ---- ---- ---- 

[Chorus 3: ]

          E                                       
At night I wake up with the sheets soaking wet, 

       E                                                     
and a freight train running through the middle of my head, 

      A C#m                        
only you can cool my desire. ---- ---- ---- ---- 

 A B E A B E      
Oh oh oh, I'm on fire. ---- ---- ---- ---- Oh oh oh, I'm on fire. 

                     A B E                          
---- ---- ---- ---- Oh oh oh, I'm on fire. ---- ---- ---- ---- 

[Coda: ]

 C#m C#m                            
---- ---- ---- ---- ---- ---- ---- ---- ---- ---- ---- ---- ---- ---- 

         E E                                   
Ooh hoo hoo, ooh ooh. ---- ---- ---- ---- ---- ---- ---- 

     C#m C#m E         
Ooh hoo, ooh ooh. ---- ---- Ooh ooh hoo hoo hoo ooh. 

 E C#m            
---- ---- ---- ---- ---- ---- Ooh hoo hoo, ooh ooh. 

 C#m E                         
---- ---- ---- ---- ---- ---- Ooh ooh hoo hoo ooh. ---- ---- ---- ---- 

 E C#m           

It Had Better Be Tonight – Meglio Stasera Chords – Michael Buble

 It Had Better Be Tonight - Meglio Stasera

Tempo: 218 / Tonart: F#m

(Michael Buble)


[Intro:]

 Bm C# Bm C# Bm         
---- ---- ---- ---- ---- ---- ---- ----    ---- ---- ---- ---- 

 C# Bm C# Bm C# Bm C#    
---- ---- ---- ---- ---- ---- ---- ---- ---- ---- ---- ---- 

           Bm C#  
---- ---- ---- ---- ---- ---- ---- ---- 

[Part 1:]

           Bdim F#m Bdim F#m G C# F#m E Bdim F#m Bdim F#m G7 /13 
Meglio stasera,    baby, go   go go. Or as we natives say,      

        F#m                                                              
fa subito. ---- ---- ---- ---- ---- ---- ---- ---- ---- ---- ---- ---- 

[Part 2:]

 F#m Bm                       
If you're ever gonna kiss me, ---- ---- ---- ---- 

 C# F#m                      
It had better be tonight.     ---- ---- ---- ---- 

 F#7 Bm G#7 C#7      
While the mandolins are playing, and stars are bright. 

      F#m6 Bm7                      
Mmh, if you've anything to tell me, ---- ---- ---- ---- 

 C#7                        F#mj7/9                     
it had better be tonight.         ---- ---- ---- ---- 

 F#7 /9                 Bm                            
Or somebody else may tell me, ---- ---- ---- ---- 

 F#m/C# C#                 
whisper the words just right. 

--> Part 1:

[Bridge:]

---- ---- ---- ---- ---- ---- ---- ---- ---- ---- ---- ---- 

 Gm                                                           
---- ---- ---- ---- ---- ---- ---- ---- ---- ---- ---- ---- 

---- ---- ---- ---- 

[Part 2:]

 Gm Cm                       
If you're ever gonna hold me, ---- ---- ---- ---- 

 D7                         Gmj7/9                 G7 /9 
it had better be tonight.        ---- ---- ---- ---- 

                      Cm Gm/D D                 
Or somebody else may hold me, they might make me feel just right. 

 Gm9                  
---- ---- ---- ---- 

[Solo:]

 Gm                   D7b9                                    
---- ---- ---- ---- ---- ---- ---- ---- ---- ---- ---- ---- 

 Gm                                       D7b9                
---- ---- ---- ---- ---- ---- ---- ---- ---- ---- ---- ---- 

---- ---- ---- ---- 

--> Part 1: ...

[Solo 2:]

 D#dim Gm G# D#                   
---- ---- ---- ---- ---- ---- ---- ---- ---- ---- ---- ---- 

                     E C#m                  
---- ---- ---- ---- ---- ---- ---- ---- ---- ---- ---- ---- 

 Dm D     
---- ---- ---- ---- ---- ---- ---- ---- 

[Part 3:]

 Gm Cm                         
For this poor americano, ---- ---- ---- ---- 

 D Gm       D7b9  Bb7        D7b9      
who knows a little of your speech.      ---- ---- ---- ---- 

 G7 /13          Cm7 A7 D            
Be a nice italiana, and start to teach, mmh. 

[Part 4:]

 Gm Cm                           
Show me how in old milano, ---- ---- ---- ---- 

 D Gm9                      
lovers hold each other oh so tight.     ---- ---- ---- ---- 

 G7

Compromise intro Tabs by Saturate

 !!!Only Refrain!!!

Tempo = 128

C#|----------------------------------------------------|----|
G#|----------------------------------------------------|----|
E |----------------------------------------------------|----|
B |--10-10-10-10-------10-10-10-10-------10-10-10-10---|----|
F#|--10-10-10-10-------10-10-10-10-------10-10-10-10---|----|
B |--10-10-10-10-------10-10-10-10-------10-10-10-10---|----|


----------------------------------------------------|----|
----------------------------------------------------|----|
----------------------------------------------------|----|
--2--2--2--2--------2--2--2--2--------2--2--2--2----|----|
--2--2--2--2--------2--2--2--2--------2--2--2--2----|----|
--2--2--2--2--------2--2--2--2--------2--2--2--2----|----|


----------------------------------------------------|----|
----------------------------------------------------|----|
----------------------------------------------------|----|
--10-10-10-10-------10-10-10-10-------10-10-10-10---|----|
--10-10-10-10-------10-10-10-10-------10-10-10-10---|----|
--10-10-10-10-------10-10-10-10-------10-10-10-10---|----|


----------------------------------------------------|
----------------------------------------------------|
----------------------------------------------------|
--2--2--2--2--------2--2--2--2--------2--2--2--2----|
--2--2--2--2--------2--2--2--2--------2--2--2--2----|
--2--2--2--2--------2--2--2--2--------2--2--2--2----|


----------------------------------------------------------------|
----------------------------------------------------------------|
----------------------------------------------------------------|
--------2--2--2--2--------2-----2-----------2-------------------|
--------2--2--2--2--------2-----2-----------2-------------------|
--------2--2--2--2--------2-----2-----------2-------------------|


----------------------------------------------------|
----------------------------------------------------|
--------------------------12-12-12----11-11-11------|
--10----10-10-10----10-10---------------------------|
--10----10-10-10----10-10---------------------------|
--10----10-10-10----10-10---------------------------|


----------------------------------------------------|
----------------------------------------------------|
--------------------------12-12-12----11-11-11------|
--10----10-10-10----10-10---------------------------|
--10----10-10-10----10-10---------------------------|
--10----10-10-10----10-10---------------------------|


----------------------------------------------------|
----------------------------------------------------|
--------------------------5--5--5-----4--4--4-------|
--2-----2--2--2-----2--2----------------------------|
--2-----2--2--2-----2--2----------------------------|
--2-----2--2--2-----2--2----------------------------|


----------------------------------------------------|
----------------------------------------------------|
--------------------------5--5--5-----4--4--4-------|
--2-----2--2--2-----2--2----------------------------|
--2-----2--2--2-----2--2----------------------------|
--2-----2--2--2-----2--2----------------------------|


----------------------------------------------------|
----------------------------------------------------|
--------------------------12-12-12----11-11-11------|
--10----10-10-10----10-10---------------------------|
--10----10-10-10----10-10---------------------------|
--10----10-10-10----10-10---------------------------|


----------------------------------------------------|
----------------------------------------------------|
--------------------------12-12-12----11-11-11------|
--10----10-10-10----10-10---------------------------|
--10----10-10-10----10-10---------------------------|
--10----10-10-10----10-10---------------------------|


----------------------------------------------------|
----------------------------------------------

Lego House Acoustic Tabs by Ed Sheeran V4

 Ed Sheeran - Lego House (Acoustic live version)
Tuning: Standard (E A D G B E)
Key: B major (B C# D# E F# G# A# B)
Tempo: 75-80 bpm
Transcribed by Robert from Astlessons
Link to my tutorial on YouTube: http://www.youtube.com/watch?v=mUZEsQDASHQ



[Intro]

  B5                      B5/F#     B5/G#                   Bmaj7/E
|---------------------------------|---------------------------------|
|---------------------------------|---------------------------------|
|---4---4---4---4---4---4---4---4-|---4---4---4---4---4---4---3---3-|
|---4---4---4---4---4---4---4---4-|---4---4---4---4---4---4---4---4-|
|-2-------------------------------|---------------------------------|
|-------------------------2-------|-4-----------------------0-------|

  B5                      B5/F#     B5/G#                   Bmaj7/E
|---------------------------------|---------------------------------|
|---------------------------------|---------------------------------|
|---4---4---4---4---4---4---4---4-|---4---4---4---4---4---4---3---3-|
|---4---4---4---4---4---4---4---4-|---4---4---4---4---4---4---4---4-|
|-2---------------2---------------|---------------------------------|
|-------------------------2-------|-4---------------4-------0-------|


[Verse 1]

  B5                      B5/F#     B5/G#                   B5/E
|---------------------------------|---------------------------------|
|---------------------------------|---------------------------------|
|---4---4---4---4---4---4---4---4-|---4---4---4---4---4---4---4---4-| x4
|---4---4---4---4---4---4---4---4-|---4---4---4---4---4---4---4---4-|
|-2---------------2---------------|---------------------------------|
|-------------------------2-------|-4---------------4-------0-------|


[Bridge]

  B5              B5/F#             B5/G#                   B5/E
|---------------------------------|---------------------------------|
|---------------------------------|---------------------------------|
|---4---4---4---4---4---4---4---4-|---4---4---4---4---4---4---4---4-|
|---4---4---4---4---4---4---4---4-|---4---4---4---4---4---4---4---4-|
|-2-------------------------------|---------------------------------|
|-----------------2---------------|-4---------------4-------0-------|

  B5              B5/F#             B5/G#          /E
|---------------------------------|---------------------------------|
|---------------------------------|---------------------------------|
|---4---4---4---4---4---4---4---4-|---4---4-------------------------|
|---4---4---4---4---4---4---4---4-|---4---4-------------------------|
|-2-------------------------------|---------------------------------|
|-----------------2---------------|-4---------------0---------------|


[Chorus 1]

  B5                      B5/C#     B5/G#
|---------------------------------|---------------------------------|
|---------------------------------|---------------------------------|
|---4---4---4---4---4---4---4---4-|---4---4---4---4---4---4---4---4-|
|---4---4---4---4---4---4---4---4-|---4---4---4---4---4---4---4---4-|
|-2---------------2-------4-------|---------------------------------|
|---------------------------------|-4---------------4---------------|

  B5/F#                   B5/G#     B5/E            B5/F#
|---------------------------------|---------------------------------|
|---------------------------------|---------------------------------|
|---4---4---4---4---4---4---4---4-|---4---4---4---4---4---4---4---4-|
|---4---4---4---4---4---4---4---4-|---4---4---4---4---4---4---4---4-|
|---------------------------------|---------------------------------|
|-2---------------2-------4-------|-0---------------2---------------|

  B5                      B5/C#     B5/G#
|---------------------------------|---------------------------------|
|---------------------------------|---------------------------------|
|---4---4---4---4---4---4---4---4-|---4---4---4---4---4---4---4---4-

Birdgirl On A Cell Phone Chords – Eels

 -------------------------------------------------------------------------------
                             Eels - Birdgirl On A Cell Phone
-------------------------------------------------------------------------------
Album : B-Sides and Rarities (1996-2003)
Tempo : 105
E-mail: gwendal.mollo@orange.fr
Tabbed by: newg

(Can be play with a capo on 5 and transcript -5 for simple chords.)

Intro :
     F C A# C  
E |----------------------------|----------------||
B |--------------1-------------|-----3--1-------||
G |-----------2--------2-------|--3--------0----||
D |--------3-------------------|----------------||
A |-----3----------------------|----------------||
E |--1-------------------------|----------------||  x2

 F C A# C 
She has eyes disability blue, 
   F C A# C 
a German dog and strict curfew
        F C A# F   
And if one man's cage is another man's stage
      F C A# F   
Then she's turned the script to another page
         D# A# C 
And she doesn't really give a damn what you have to say

 F C A# C F C A# C 
She makes a call on her friend's cell phone
     F C A# C 
The operator answers and says you're not alone
        F C A# F  
And if one man's ceiling is another's dance floor
      F C A# F  
Then she'll be the one running to the sea shore
 D# A# C 
Trying to tell the seagulls this is home

 F C A# C   x4

        F C A# F   
And if one man's cage is another man's stage
      F C A# F   
Then she'll be the one wiser than her age
 D# A# C 
Trying to get the message to your ear

 F C A# F   x2 
 D# A# C F C A# C  (Fade out)

Waltz Of The Naked Clowns Tabs by Eels

 -------------------------------------------------------------------------------
                             Eels - Waltz of the Naked Clowns
-------------------------------------------------------------------------------
Album : B-Sides and Rarities (1996-2003)
Tempo : 149 (3/4) 
E-mail: gwendal.mollo@orange.fr
Tabbed by: newg

Part A 
     C       C             Dm             Dm
E ||------|-------------|-------------|------||
B ||-5----|--------5----|--6-----5----|--3---||
G ||------|--5--7-------|-------------|------||
D ||------|-------------|-------------|------||
A ||------|-------------|-------------|------||
E ||------|-------------|-------------|------||     x4


Part B 

|-12---------|-------|--10---------|------------||
|-------13---|--10---|--------12---|------------||
|------------|-------|-------------|--12--------||
|------------|-------|-------------|------------||
|------------|-------|-------------|------------||
|------------|-------|-------------|------------||  x3


Bass part A :

G ||------------|-------------|-------|------||
D ||------------|-------------|-------|------||
A ||-3----------|--------3----|--5----|------||
E ||------------|--3----------|-------|--5---||   x4

Bass part B :

|------------|-------------|-------------|------------||
|3-----------|--3-----3----|--5----------|--5---------||
|------------|-------------|-------------|------------||
|------------|-------------|-------------|------------||   x3

True Original Chords – Eels V2

 -------------------------------------------------------------------------------
                              Eels - True Original
-------------------------------------------------------------------------------
Album : Wonderful Glorious (2012)
Tempo : 60
E-mail: gwendal.mollo@orange.fr
Tabbed by: newg

Capo on 7

Chords : 
 B7       : xx120x
 Bm7      : x2020x
Emadd11 : x020xx


[intro]
 Em B7 Bm7  Emadd11

 Em B7 Bm7  Emadd11
  She's a true original
 Em B7 Bm7           Emadd11
       Not some store bought rebel
 Em B7 Bm7      Emadd11
       She can find her own way home
 Em B7 Bm7         Emadd11
       You just have to let her

[Chorus]
 C G 
  Whichever path she finds,
 Bm Em 
  It's hers to take
 C G 
  And if she says she's fine
 Bm Em Bm C Em 
  You just have to wait for her


 Em B7 Bm7    Emadd11
   She's an artist in the world
 Em B7 Bm7    Emadd11
   She composes from the heart
 Em B7 Bm7    Emadd11
   The finish on he's always there
 Em B7 Bm7      Emadd11
       Well before she starts

[Chorus]
 C G 
  And any time she might
 Bm Em 
  Get the words wrong
 C G 
  You just turn it up and you
 Bm Em Bm C Em 
  You sing along with her

 Em B7 Bm7  Emadd11 x2

 Em B7 Bm7  Emadd11
    And if a gun was pointed at her
 Em B7 Bm7         Emadd11
    I would stand between the bullet and her
 Em B7 Bm7               Emadd11
    And if not being with me is what makes her happy
 Em B7 Bm7  Emadd11
       I'd take that bullet too


[Chorus]
 C G 
  Whichever path she finds,
 Bm Em 
  It's hers to take
 C G 
  And if she says she's fine
 Bm Em Bm C Em 
  I just have to wait for her

 Em B7 Bm7  Emadd11 

 Em B7 Bm7  Emadd11 
    She's a true original 

[Outro]
 Em B7 Bm7  Emadd11 
 Em B7 Bm7 Em  (let ring)

Heavy Soul Chords – Black Keys

 -------------------------------------------------------------------------------
                              Black Keys - Heavy Soul
-------------------------------------------------------------------------------

Album : The Big Come Up (2002)
Tempo : 90
E-mail: gwendal.mollo@orange.fr
Tabbed by: newg

Guitar Dropped D, see the guitar tab for the riffs.



 D5 D5 
   Hear her calling,   come to me
 D5 D5 
   Thought of her      won't let me be         
 D5 D5 
   Go to the valley,   climb the hill
 D5 D5 
   Whatever it takes darling,     you know I will

[Chorus]
         D5 F5 G5 F5 
Hey now darling     Heavy soul   
    D5 F5 G5 F5 
darling        Heavy soul 
    D5 F5 G5 F5 
darling        Heavy soul 
    D5 F5 G5 F5 
darling        Heavy soul 
    D5 F5 G5 F5 
darling          

 D5 D5 
   Hear her callin',   hurry home
 D5 D5 
   Been so long     since I been gone
 D5 D5 
   I won't get tired,    won't go astray
 D5 D5 
   I hear her callin',   call my name

[Chorus]  x1 

 D5 D5 
   Just my color,    just my kind
 D5 D5 
   Got a heavy soul    next to mine
 D5 D5 
   Heart's on fire,    get no sleep
 D5 D5 
   Drive all night,    no relief

[Chorus/solo]   

 D5

Heavy Soul Tabs by Black Keys V6

 -------------------------------------------------------------------------------
                              Black Keys - Heavy Soul
-------------------------------------------------------------------------------

Album : The Big Come Up (2002)
Tempo : 90
E-mail: gwendal.mollo@orange.fr
Tabbed by: newg

Guitar Dropped D


Intro :

E |----------------------------||
B |----------------------------||
G |----------------------------||
D |----------------------------||
A |--------------------0-------||
D |--------0M----3h-5----------||

  D5
|---------------------------------------------------|
|-3-----3-------------------------------------------|
|-2.----2-----------------2b------------------------|
|-0-----0-----------------------------0-----0-------|
|----------------------------------------3----------|
|---------------------------------------------------|

  D5
|---------------------------------------------------|
|--3-----3------------------------------------------|
|--2.----2------------------------------------------|
|--0-----0------------------------------------------|
|--------------------------------------------0------|
|--------------------------------0M----3h-5---------|  x2

Verses :

  D5
|---------------------------------------------------|
|-3-----3-------------------------------------------|
|-2.----2-----------------2b------------------------|
|-0-----0-----------------------------0-----0-------|
|----------------------------------------3----------|
|---------------------------------------------------|

  D5
|---------------------------------------------------|
|--3-----3------------------------------------------|
|--2.----2------------------------------------------|
|--0-----0------------------------------------------|
|--------------------------------------------0------|
|--------------------------------0M----3h-5---------| x3

  D5
|---------------------------------------------------|
|-3-----3-------------------------------------------|
|-2.----2-----------------2b------------------------|
|-0-----0-----------------------------0-----0-------|
|----------------------------------------3----------|
|---------------------------------------------------|

  D5
|---------------------------------------------------|
|--3-----3------------------------------------------|
|--2.----2------------------------------------------|
|--0-----0------------------------------------------|
|----------------------------------------3h-5~------|
|---------------------------------------------------|

Chorus :
Gtr1 :
        D5
|----------------------x--------------------------|
|-------3-----------x--x--------------------------|
|-------2-----------x-----------------------------|
|-------0-----------x--x--------------------------|
|-------------------------------------------------|
|-0M----------3-----------5.----5M----3-----------|  x5 

Gtr2 :
 D5     F5    G5    F5
|--------------------------||
|--------------------------||
|--------------------------||
|-0--0--3-----5.-5--3------||
|-0--0--3-----5.-5--3------||
|-0--0--3-----5.-5--3------||  x5

Outro : 
   D5
|------||
|---3--||
|---2--||
|---0--||
|------||
|------|| 



Intro x2
Verse 1 x4
Chorus 1 x5
Verse 2 x4 
Chorus 2 x6
Verse 3 x4
Chorus 3/solo x12
end : D5