Tag: than

More Than You Know chords by Axwell Λ Ingrosso

Capo on first fret for easier chords

[Intro]
Fm Db Ab Bbm

[Chorus]
       Fm              Db       Ab
I just need to get it off my chest
        Bbm          Fm
Yeah, more than you know
     Db              Ab
Yeah, more than you know
Bbm         Fm             Db           Ab
You should know that baby you're the best
      Bbm           Fm
Yeah, more than you know
      Db             Ab   Bbm
Yeah, more than you know

[Verse 1]
Fm        Db      Ab        Bbm
I saw it coming, from miles away
Fm         Db          Ab                 Bbm
I better speak up if I got something to say
Fm              Db    Ab         Bbm
'Cause it ain't over, until she sings

Fm Db Ab Bbm

Fm              Db    Ab         Bbm
You had your reasons, you had a few
Fm            Db             Ab            Bbm
But you knew that I would go anywhere for you
Fm              Db     Ab        Bbm
'Cause it ain't over, until she sings

[Chorus]
       Fm              Db      Ab
I just need to get it off my chest
        Bbm         Fm
Yeah, more than you know
     Db              Ab
Yeah, more than you know
Bbm        Fm             Db           Ab
You should know that baby you're the best
       Bbm          Fm
Yeah, more than you know
      Db             Ab   Bbm
Yeah, more than you know

[Post-Chorus]
Fm    Db  Ab   Bbm
           I   just...
Fm    Db  Ab   Bbm
           I   just...

[Verse 2]
Fm         Db         Ab            Bbm
Your good intentions are sweet and pure
Fm            Db           Ab         Bbm
But they can never tame a fire like yours
Fm           Db   Ab         Bbm
No it ain't over, until she sings

Fm Db Ab Bbm

Fm              Db       Ab         Bbm
Right where you wanted, down on my knees
Fm         Db             Ab            Bbm
You got me begging, pretty baby set me free
Fm             Db     Ab         Bbm
'Cause it ain't over, until she sings

Fm Db Ab Bbm

[Pre-Chorus]
Fm              Db            Ab            Bbm
Come a little closer, let me taste your smile
Fm         Db       Ab  Bbm
Until the morning lights
Fm              Db               Ab      Bbm
Ain't no going back the way you look tonight
Fm       Db       Ab  Bbm
I see it in your eyes

[Chorus]
       Fm              Db      Ab
I just need to get it off my chest
        Bbm          Fm
Yeah, more than you know
     Db              Ab
Yeah, more than you know
Bbm        Fm             Db           Ab
You should know that baby you're the best
       Bbm          Fm
Yeah, more than you know
      Db             Ab   Bbm
Yeah, more than you know

       Fm             Db
Yeah, more than you know
       Ab             Bbm
Yeah, more than you know
       Fm             Db
Yeah, more than you know
       Ab             Bbm
Yeah, more than you know
       Fm             Db
Yeah, more than you know
       Ab             Bbm
Yeah, more than you know
       Fm             Db
Yeah, more than you know
       Ab             Bbm
Yeah, more than you know

[Post-Chorus]
Fm    Db  Ab   Bbm
           I   just...

[Chorus]
       Fm              Db      Ab
I just need to get it off my chest
        Bbm         Fm
Yeah, more than you know
     Db              Ab
Yeah, more than you know
Bbm        Fm             Db           Ab
You should know that baby you're the best
       Bbm          Fm
Yeah, more than you know
      Db             Ab   Bbm
Yeah, more than you know

Some Girls Are Bigger Than Others chords – The Smiths Vsion 2

 Song:      Some Girls Are Bigger Than Others
Artists:   The Smiths
     The Queen Is Dead, 1986
Tempo:     4|4
Style:     Alt-Melodic
Tuning:    Standard

No Capo

Chords:                
           EADGBe      
 A           577655       
 B           799877       
 G#m         X66444       
 C#m         X46654       
 B           799877       
 E           022100              


INTRO:
(Fade In)              (Fade Out)   
|N.C.   | A B | G#m     | C#m    |
      (FadeIn)
| A B | C#m     | A B | E      |


BRIDGE 1:
| G#m     | C#m     | A B | C#m    |
| A B | C#m     | A B | E      |



VERSE 1:
 C#m B 
From the ice-age to the dole-age,
 E                     
There is but one concern.
 G#m                
I have just discovered:


CHORUS 1:
 C#m A B      
Some girls are bigger than others,
 C#m A B 
Some girls are bigger than others.
 E G#m 
Some girls mothers are bigger than other girls mothers.
 C#m A B      
Some girls are bigger than others,
 C#m A B 
Some girls are bigger than others.
 E G#m 
Some girls mothers are bigger than other girls mothers.


INSTRUMENTAL:
| C#m     | A B | C#m     | A B |
| C#m     | A B | E               |


VERSE 2:
 C#m B 
As Antony said to Cleopatra,
 E                      
As he opened a crate of ale.
 G#m  
Oh I say:


CHORUS 2:
 C#m A B       
Some girls are bigger than others,
 C#m A B  
Some girls are bigger than others.
 E G#m 
Some girls mothers are bigger than other girls mothers.
 C#m A B       
Some girls are bigger than others,
 C#m A B  
Some girls are bigger than others.  
 E G#m C#m                
Some girls mothers are bigger than other girls mothers.


SEMICHORUS 1:(Radio Vox)
 A B C#m  
"Send me your pillow, 
 A B C#m 
The one that you dream on”.
 E G#m C#m 
(No words)
 A B C#m  
"Send me your pillow,
 A B C#m  
The one that you dream on" 
 A C E 
And I'll send you mi-i-i-i-ne.


CODA & INSTRUMENTAL:(Repeat Lead over to Fade Out)
| C#m     | A B     | C#m     | A B     |
| C#m     | A B     | C#m     | A B     |
| C#m     | A       | C#m     | A       |
| C#m     | A       | C#m     | A       |

| C#m     | A       | C#m     | A       |
| C#m     | A       | C#m     | A       |
| C#m     | A       | C#m     | A       |
| C#m     | A       | C#m     | A       |

|C#m    |A     

Youre A Better Man Than I chords – Yardbirds

 INTRO:  G A F#m            X2

    D -----5--5--------7---7--------4------4-
    A ---5---5--5----7---7---7----4------4---
    E -3-----------5------------2------2-----

VERSE 1:
 G A F#m         
Can you judge a man, by the way he wears his hair
 G A F#m 
Can you read his mind, by the clothes that he wears
 E F#m G A 
Can you see a bad man by the pattern on his tie

CHORUS:
           Bm A Bm A 
Well then mister you're a better man than I, Yeah, mister you're a better man than I
     Bm A Bm A F#m 
Oh, mister you're a better man than I, yeah, mister you're a better man than I

VERSE 2:
 G A F#m 
Could you tell a wise man, by the way he speaks or spells
 G A F#m 
Is this more important, than the stories that he tells
 E F#m G A 
And call a man a fool if for wealth he doesn't strive

CHORUS:
           Bm A Bm A 
Well then mister you're a better man than I, Yeah, mister you're a better man than I
     Bm A Bm A F#m 
Oh, mister you're a better man than I, yeah, mister you're a better man than I

SOLO: F#m

VERSE 3:  
 G A F#m       
Can you condemn a man, if your faith he doesn't hold
         G A F#m 
Say the colour of his skin, is the color of his soul
 E F#m G A 
Could you say that men for king and country all must die

CHORUS:
           Bm A Bm A 
Well then mister you're a better man than I, Yeah, mister you're a better man than I
     Bm A Bm A F#m 
Oh, mister you're a better man than I, yeah, mister you're a better man than I

Better Than You chords – Heather Peace

 Hether Peace "Better than you"

intro:  Dm C Bb C Dm C 
 Today’s the day I’m leaving 
                                    Bb 
 I want nothing, you can have it all
                                      C  
 I’m leaving with the last bit of my sanity 
                  Dm 
 You took the rest 
                            C 
 Like a drip drip tap you fed me
                       Bb        
 Nothing but insults and lies
                                             C  
 I want to leave with the remainder of my sanity 
            Dm 
 So bye bye 

                C 
I’ll find better than you
     Bb  
Oh no 
               C 
I’ll find better than you
                           Dm  
Even though I’m broken down 
            C 
Oh I want nothing from you 
                  Bb 
You can have it all
               C  
I’ll find better than you
         Dm C Bb C  
Oh ohhhhh 

 Dm C 
 The way you broke me down was clever
                      Bb  
 Almost unnoticeable 
                                           C 
 To all our friends it looked like I was crazy
                        Dm  
 And totally irrational 
                            C 
 Like a drip drip tap you fed me
                      Bb  
 Feeding on my insecurities
                                          C  
 I want to go with the remainder of my sanity
                       Dm  
 Now it’s time to leave 


               C             
I’ll find better than you 
     Bb 
Oh no 
               C                
I’ll find better than you 
                             Dm 
Even though I’m broken down 
            C 
Oh I want nothing from you
                  Bb  
You can have it all
              C  
I’ll find better than you
          Dm C Bb C Dm C Bb C  
Oh ohhhhh 

 Dm C 
 Was it always your intention to leave me like this 
 Bb C 
 Was it always your intention to hurt me this way
 Dm C  
 Was it always your intention to break me 
 Bb C 
 God I never thought I’d be so breakable
  Oh no no no 

 Dm C 
 I’ll find better than you
      Bb  
 Oh no 
                C 
 I’ll find better than you
                             Dm  
 Even though I’m broken down 
             C 
 Oh I want nothing from you
                  Bb  
 You can have it all
               C  
 I’ll find better than you 
          Dm C Bb C D 
 Oh ohhhhh

Mike Duces Symphony No 11 In D Minor Tabs – Lower Than Atlantis

 -------------------------------------------------------------------------------
       Mike Duce's Symphony No.11 in D minor - Lower Than Atlantis
-------------------------------------------------------------------------------
: Sam Lyons
 sam.lyons0@hotmail.com

Tuning: Drop D (DADGBe)

Intro
e|------------------------------------------------------------|
B|-12--12-----8-----5--5-----8-----12--12-----8-----8--0--5---|
G|-12--12-----9-----0--0-----9-----12--12-----9-----9--0--0---|
D|-0---0------0-----5--5-----0-----0---0------0-----0--0--5---|
A|-12--12-----8-----5--5-----8-----12--12-----8-----8--0--5---|
D|------------------------------------------------------------|

e|----------0-------------------------------------------------|
B|----0-------------------------------------------------------|
G|-------5-----5----------------------------------------------|
D|-7--------------9-------------------------------------------|
A|------------------------------------------------------------|
D|------------------------------------------------------------|

e|----------------------------------------------------------------------------------------|
B|---------12-----------------------------8--------------5--------------------------8-----|
G|-----------------12---------------9--------9-----------------5--------------9--------9--|
D|----------------------------------------------------------------------------------------|
A|-12--12------12------12-----8--8-----8-----------5--5-----5-----5-----8--8-----8--------|
D|----------------------------------------------------------------------------------------|

e|---------------------------------------------------------------------------|
B|---------12-----------------------------8--------5----------5\7-----7p0----|
G|-----------------12---------------9--------9-----0----------0\0-----0p0----|
D|-------------------------------------------------5----------5\7-----7p0----|
A|-12--12------12------12-----8--8-----8-----------5----------5\7-----7p0----|
D|---------------------------------------------------------------------------|

Verse 1

e|------------------------------------------------------------|
B|-12--12-----8-----5--5-----8-----12--12-----8-----8--0--5---|
G|-12--12-----9-----0--0-----9-----12--12-----9-----9--0--0---|
D|-0---0------0-----5--5-----0-----0---0------0-----0--0--5---|
A|-12--12-----8-----5--5-----8-----12--12-----8-----8--0--5---|
D|------------------------------------------------------------|

e|----------0-------------------------------------------------|
B|----0-------------------------------------------------------|
G|-------5-----5----------------------------------------------|
D|-7--------------9-------------------------------------------|
A|------------------------------------------------------------|
D|------------------------------------------------------------|

e|----------------------------------------------------------------------------------------|
B|---------12-----------------------------8--------------5--------------------------8-----|
G|-----------------12---------------9--------9-----------------5--------------9--------9--|
D|----------------------------------------------------------------------------------------|
A|-12--12------12------12-----8--8-----8-----------5--5-----5-----5-----8--8-----8--------|
D|----------------------------------------------------------------------------------------|

e|---------------------------------------------------------------------------|
B|---------12-----------------------------8--------5----------5\7-----7p0----|
G|-----------------12---------------9--------9-----0----------0\0-----0p0----|
D|-------------------------------------------------5----------5\7-----7p0----|
A|-12--12------12------12-----8--8-----8-----------5----------5\7-----7p0----|
D|---------------------------------------------------------------------------|

Chorus
e|-------------------------------------------------------------------

Louder Than The Radio Live intro Tabs – Delirious

 -------------------------------------------------------------------------------
                             LOUDER THAN THE RADIO - Delirious?
-------------------------------------------------------------------------------

Tuning: Standard

There are actually only two notable riffs throughout this song, and both are used as 
portions of the intro.
You'll need to listen to the track to figure out when they are played.  Just to note, 
this is based off the
live version, so it is not exactly the same as the studio one.  They are pretty close though.

Riff One
e|----------------------------|
B|----------------------------|
G|----------------------------|
D|--0--0-4-5-4-0--0-0-4-5-4-0-|
A|----------------------------|
E|----------------------------|

Riff Two
e|-------------------------------|
B|-------------------------------|
G|-------------------------------|
D|--0--0---------0--0-0---------0|
A|-------2-2-0-2--------2-2-0-2--|
E|-------------------------------|

************************************

| /   slide up
| \   slide down
| h   hammer-on
| p   pull-off
| ~   vibrato
| +   harmonic
| x   Mute note
| b   Bend
| pb  Pre-bend
| br  Bend release
| pbr Pre-bend release
| brb Bend release bend

************************************

Harder Than You Know Tabs – Escape The Fate V4

 Capo 3
Original song played on a nylon string guitar.  

Chords

Cadd9: 032030
E7: 020100
F: 1X3211
Fm7: 1X3111
D: X00232
Am: 002210
G: 320003
C: 032010

Riff:
Cadd9    E7       F      Fm7    Cadd9   E7       F      Fm7
|---0--------0----3h0-----1----|---0--------0----3h0-----1-|
|3---3---3----3------1-----1---|3---3---3----3------1----1-|
|-0---0---1----1------2-----1--|-0---0---1----1------2---1-|
|--2-------0----0------3--3--3-|--2-------0----0------3--3-|
|3-------2---------------------|3-------2----------------X-|
|-----------------1------------|-----------------1-------1-|

play riff for the verses or the chords posted

Intro: Riff
Verse:
C                   E7
You said this could only get better
F                         Fm7
There's no rush 'cause we have each other
C                   E7
You said this would last forever
F                        Fm7
But now I doubt if I was your only lover

Prechorus:
C           G
Are we just lost in time?
 Am              G
I wonder if your love's the same
F          Fm7
'Cause I'm not over you

Chorus:
C           E7
Baby, don't talk to me
F                 Fm7
I'm trying to let go
C                 E7              F
Not loving you is harder than you know
       Fm7                          
'Cause girl you're driving me so crazy

Riff X 1

Verse:
C                         E7
How can I miss you if you never would stay?
F                        Fm7
If you need time I guess I'll go away (I'll go away)
C                          E7
Inside me now there's only heartache and pain
F                           Fm7
So where's the fire, you've begun the rain

PreChorus:
C           G
Are we just lost in time?
Am               G          F
I wonder if your love's the same
           Fm7
'Cause I'm not over you

Chorus:
C           E7
Baby, don't talk to me
F                 Fm7
I'm trying to let go
C                 E7              F
Not loving you is harder than you know
       Fm7                          
'Cause girl you're driving me so crazy
C                E7
And if you don't want me then
F                    Fm7
I guess I'll have to go (I guess I'll have to go) 
C                 E7              F     Fm7(strum once)
Not loving you is harder than you know

C                E7
So I'll make the call
               F
And I'll leave today
          Fm7
I'm gonna miss you 'cause I love you baby
C                   E7
Yeah, I'll make the call
            F
I'm leaving today
    Fm7
And leaving always drives me crazy

C , E7 , F , Fm7

C              E7        F       Fm7
Leaving always drives me crazy

Verse:
C           E7
Baby, don't talk to me
F                 Fm7
I'm trying to let go
C                 E7              F
Not loving you is harder than you know
       Fm7                          
'Cause girl you're driving me so crazy

C           E7
Baby, don't talk to me
F                 Fm7
I'm trying to let go
C                 E7              F
Not loving you is harder than you know
       Fm7                          
'Cause girl you're driving me so crazy

C                E7
And if you don't want me then
F                    Fm7
I guess I'll have to go (I guess I'll have to go) 
C                 E7              F     Fm7(strum once)
Not loving you is harder than you know

(Play riff for this last part)
C           E7
Baby, don't talk to me
F                 Fm7
I'm trying to let go
C                 E7              F
Not loving you is harder than you know
       Fm7                          
'Cause girl you're driving me so crazy

Louder Than Words chords – Pink Floyd

  Kwint and Troy.


Artist : Pink Floyd
Song   : Louder Than Words
Album  : The Endless River [2014]

NO CAPO


Chord diagram for intro:
C#m [9,11,11,9,9,9}
 B    [799877]
 A    [577655]

INTRO:
 C#m  -  B A D 

VERSE:
 D 
We bitch and we fight, diss each other on sight
           Am 
But this thing we do...
 D 
These times together, rain or shine or stormy weather
       Am 
This thing we do...
 D 
With world-weary grace we've taken our places
           Am 
We could curse it or nurse it and give it a name.

Or stay home by the fire
felled by desire, stoking the flame.
But we're here for the ride.


CHORUS:
 B 
It's louder than words
                     A 
This thing that we do

Louder than words
              C#m 
It way it unfurls.
 B 
It's louder than words
                 A 
The sum of our parts

The beat of our hearts
                 C#m 
Is louder than words
              F# 
Louder than words


INTERUDE:
 D 


VERSE:
 D 
The strings bend and slide as the hours glide by
     Am 
An old pair of shoes, your favorite blues gonna tap out the rhythm
 D 
Let's go with the flow wherever it goes
        Am 
We're more than alive.


CHORUS:
 B 
It's louder than words
                     A 
This thing that we do

Louder than words
              C#m 
It way it unfurls.
 B 
It's louder than words
                 A 
The sum of our parts

The beat of our hearts
                 C#m 
Is louder than words
              F# 
Louder than words


Guitar Solo: (technically Verse chords and Chorus chords)
 D Am D Am B A C#m    -    B A C#m F# E 


If you have any suggestions/corrections, please let us know in the comments!

Better Than Life intro Tabs by Remedy Drive

 |---------------------------------------------------------------------|
|-(14)-15h-14h-12h-------(14)-15h-14h-12h-----------------------------|
|------------------14-12------------------14-11---14-14---11----------|
|------------------------------------------------------------14-12-14-|
|---------------------------------------------------------------------|

More Than You Know chords – Spoken

 More Than You Know by Spoken

I looked for this song and noticed that it wasn't on here, I think I have this pretty
close to what the song actually is.

I figured this out on acoustic guitar, so It may not be much help if you want to learn
the song exactly how it sounds recorded. I didn't take the time to figure out all of the
electric parts.

Let me know if I got part of it wrong. This is my first song, so take it easy on me :)

Enjoy!

(Intro)
  E B C#m A 

(Verse)
 C#m 
 I'd burn an empire
 B 
 If I could hold you close
 E G#m 
 But I'm in exile alone

(Verse)
 C#m 
 I had the world in my hands
 B 
 So much, so much for them to hold
 E G#m 
 Now I'm in exile alone

(Pre-Chorus)
 C#m B E 
 My heart is so low on the line
       B C#m 
Look in my eyes
              B E B 
 My heart is so low on the li  ne

(Chorus)
 E B 
I was wrong and finally I realized
                                 C#m 
We're looking through different eyes
               A E 
I'd give the world just to hold you tonight
                  B C#m 
And finally I realized when looking into your eyes
             A                          (E) This starts Instrumental
You are much more so much more than you know

(Instrumental)
 E B C#m A 

(Verse)(Same as other verse)

I'll never understand
I held the world in my hands
Why would you trust me with your heart

Now I have no one left to go
My soul now has no hope
So I'm in exile alone

(Pre-Chorus) Same
My heart is so low on the line
Look in my eyes
My heart is so low on the line

(Chorus) Same
I was wrong and finally I realized
We're looking through different eyes
I'd give the world just to hold you tonight
And finally I realized when looking into your eyes
You are much more so much more than you know

(Bridge)
 A C#m 
Look in my eyes
                        A 
So much more than you know
            C#m .......
Look in my eyes

 A C#m 
Now I have no where left to go
                         A 
My soul has now has no home
                  C#m ........
So I'm in exile alone

 A C#m 
Now I have no where left to go
                         A 
My soul has now has no home
                  C#m 
So I'm in exile alone

(Chorus)
I was wrong and finally I realized
We're looking through different eyes
I'd give the world just to hold you tonight
And finally I realized when looking into your eyes
You are much more so much more than you know

(Outro)
 E B C#m A   (Repeat as much as necessary.)

Love Is Louder Than All This Noise chords – Craig Cardiff

 Hey guys,
so this are the chords for the way he plays it live, but I've included the studio 
version below as well.
He plays it with capo 2 live and capo 4 studio.
Here's a link to the song on YouTube http://www.youtube.com/watchv=jAt9oUO4F6w , or you 
can buy it on iTunes, which I recommend, Craig's a great artist to support :).
Enjoy!
~Dan

Verse 1:

 D A 
Ohio last November was simply terrible,
              Em G 
Oh with the way wind turned rain into snow.
           D A 
Well they stopped you, oh, they stopped you at the border box,
                  Em 
Said what do you declare,
                                   G 
You said I don't know, I don't know.

Verse 2:

 D 
Since when is every song an argument,
    A 
Oh every word a bomb.
     Em G 
And terrible explosions, put together wrong.
           D 
You said I know, I know the words to it,
 A 
I know I know the words to it
       Em G 
I was there when you wrote them too

Bridge:

 A Em 
Lean in, oh, can you not hear,
     G D 
The sound that the heart makes,
         A Em G 
As she goes away.

Chorus:

              D 
And we said love is louder then then then all this
 A 
love is louder then then then all this
 Em G 
love is louder then all this noise
             D 
And we said love is louder then then then all this
 A 
love is louder then then then all this
 Em G 
love is louder then all this noise

Verse 3:

          D 
Was your messy art chosen,
    A 
Or was it overlooked?
              Em 
Are you the crazy in the corner,
 G 
Writing it in your book?
           D A 
Well, the cynic with the cynic's hook
                     Em G 
And surely now the sky will fall

Verse 4:

 D A 
  Were you to be taken from me
    Em G 
By words or by craft or by bombs
            D A 
And I will rage, I will rage into an army
                   Em G 
I would bring you back with songs

Bridge:

 A Em 
Lean in, oh, can you not hear,
     G D 
The sound that the heart makes,
         A Em G 
As she goes away.

Chorus:

              D 
And we said love is louder then then then all this
 A 
love is louder then then then all this
 Em G 
love is louder then all this noise
             D 
And we said love is louder then then then all this
 A 
love is louder then then then all this
 Em G 
love is louder then all this noise


Bridge:

 A Em 
Lean in, oh, can you not hear,
     G D 
The sound that the heart makes,
         A Em G 
As she goes away.

Verse 5:

       D A 
This moments happening were all in it
               Em G 
Well then the trick is recognition of the little purpose
            D A 
All hands up, don't you dare sleep through this
                        Em G 
No one knows how much time is left
                  D 
How much time is left
 A Em G 
Oooh
 D A Em

Better Than Life chords – Lakewood Church V2

 Verse 1:
      C5 F/C 
Your love is everlasting; it's an everlasting love
      C5 F/C 
Your mercy is as new as every rising of the sun
          Bb2 
And Your loving kindness,
 F/A C5 F5 C5 Bb2 
loving kindness is better than life
      C5 F/C 
Your grace is all-sufficient; it's an all-sufficient grace
      C5 
Your power and Your glory are forever on display
          Bb2 
And Your loving kindness,
 F/A C5 F5 C5 
loving kindness is better than life


Chorus:
    G F C G F C 
Oh      it's better, Oh,  better than life
    G F Am --->TO ENDING)
Oh   so much better,  
  D7 F Bb2 
Jesus, Your loving kindness               (TO VERSE)
                 C5 F5 C5 Bb2    -    C5 F5 C5 Bb2 
is better than life
                C5 (TO BRIDGE)


Verse 2:
Fairest of ten thousand, of ten thousand you are fair
And nothing in this world could ever measure or compare
To Your loving kindness,
Your loving kindness is better than life
All Your ways are just, oh Lord, You're just in all Your ways
And I will lift my hands, oh Lord, in gratitude and praise
For Your loving kindness,
Your loving kindness is better than life


Bridge:
 C Dm C/E  
  So we ilft up our hands    and we lift up our voices to testyfy
 F F/G 
  You are good     You are better than life
 C Dm C/E  
  So we ilft up our hands    and we lift up our voices to testyfy
 F F/G 
  That's why we sing Jesus
   C Dm C/E Am 
Jesus    Your lovingkidness
                Dm F G 
Is better than life itself better than life itself
   C Dm C/E Am 
Jesus    Your lovingkidness
                Dm F G C5 F5 C5 
Is better than life  it-self     is better than life


Ending:
  D7 F Bb 
Jesus Your lovingkidness
                 C5 F5 C5 Bb2 
Is better than life
              C5 F5 C5 Bb2 
Better than life
              C5 F5 C5 Bb2 
Better than life
              C5 F5 C5 Bb2 C 
Better than life

More Precious Than Silver intro chords – Lynn Deshazo

 D A G D 
Lord, You are more precious than silver
 D A G A 
Lord, You are more costly than gold
 D A G D 
Lord, You are more beautiful than diamonds
 G D Em G A7 D 
Nothing I desire compares to you

 D A G D 
Seigneur, Tu es plus précieux que l’argent
 D A G A 
Seigneur, Tu es plus précieux que l’or
 D A G D 
Seigneur, Tu es plus beau que les diamonds
   G D Em G A7 D 
Rien ne peut se comparer à Toi

Reindeers Are Better Than People Theme Tabs by Misc Soundtrack

 This is finger picked, so I'm not sure how to bring it across 100% in tab form - but if
you listen to the song you'll get what I mean. The lyrics match up to the notes he's
playing as he sings. Also, you're welcome to play the full chords (as listed). The 
soundtrack version uses mostly bar chords with the second note omitted - I find this easier to
play, but it's up to you!

, any comments/corrections are appreciated!

Reindeers Are Better Than People (from the Disney Animation Studios production, Frozen),
sung by Jonathan Groff.

-------------------------------------------------------------------------------
                             Reindeers Are Better Than People - Misc Soundtrack
-------------------------------------------------------------------------------
: cuddlycombine
 systematicapostasy

Tuning: standard
Intro guitar: (0:00 - 0:03)

e|---------------------------------------------------------------------------|
B|---------------------------------------------------------------------------|
G|---------------------------------------------------------------------------|
D|---------------------------------------------------------------------------|
A|---------------------------------------------------------------------------|
E|---------------------------------------------------------------------------|

e|--------------------------------------5----------------------------------------------------|
B|-------------------------------------------------------------------------------------------|
G|------4--5-4------------------6------------------------------------------------------------|
D|-------------------------------------------------------------------------------------------|
A|-----5---7-5----------7--------------------------------------------------------------------|
E|----3--------------------------------------------------------------------------------------|

Kristoff (0:04 - 0:11)

    "Reindeers are better than people,    Sven don't you think that's true?
e|---5-----------------------------------------------------------------5---------------------|
B|---7-------------------------------------------------------------------------7-------------|
G|---7-------------6-----------7------5---4--------------6-----------------6---5-------------|
D|-----------------7-----------7----------5--------------7-------------4-------0-------------|
A|---5-------------------------5-------------------------------------------------------------|
E|-----------------5----------------------3--------------5-----------------------------------|
     D             A           D          G              A             D       D7

Sven: (0:12 - 0:17)

"Yeah people will beat you and curse you and cheat you, every one of them's bad - except you!
e|-------------------------------------------------------------------------------------------|
B|----8-------------------------------------------------------8------------------------------|
G|----9-----------6------------7-------------8----------------9-------------6------------7---|
D|----------------7------------7-------------7------------------------------7------------7---|
A|----7------------------------5-------------9----------------7--------------------------5---|
E|----------------5---------------------------------------------------------5----------------|
      Em          A            D             B7               Em            A            D

Kristoff: (0:17-0:19)

"Oh, thanks buddy."
e|----------------------5--------------------------------------------------------------------|
B|-------------------------------------------------------------------------------------------|
G|-------------------6-----------------------------------------------------------------------|
D|------------------7------------------------------------------------------------------------|
A|-----------------0---

Hopeless Case chords – Less Than Jake

 Song: Hopeless Case
Artist: Less Than Jake
 In With The Out Crowd
: Bob Briggs
Email: b_riggs23 for corrections, comments or anything else.

 ##############################Please Note##################################
                  This is my own interpretation of the song

 G Em Am C 
   I have this feeling inside, that I wouldn't like me, if I met me.
 G Em Am 
   It seems like a losing fight, if you could see through my eyes,
                 C 
   Then you'd believe me...
 
Pre-chorus:
       G F Em C 
  The truth is that I'm over-rated, I can't think straight I'm formulaic.
       G F C 
  The truth is that it's sad to say it, but you can't help me.

Chorus:
   G Em Am 
  You, you don't see me that way, you hear the words that I say,
                      C G 
 you just tell me my heart's in the right place.
                           Em Am 
 It's the world that's confused, and it's never too late...
     C G G 
 to save a hopeless case...

Verse 2:
 G Em Am C 
   I've always known a ghost like me, can disappear in... a moment...
 G Em Am C 
   I'm my own worst casualty, anything I touch can... be broken...

Pre-chorus:
       G F Em C 
  The truth is that I'm self-destructive, I'm insecure, I'm out of focus
      G F C 
 The truth is that I've had enough , but you still help me,

Chorus:
   G Em Am 
  You, you don't see me that way, you hear the words that I say,
                      C G 
 You just tell me my heart's in the right place.(you hear the words that I say)
                        Em 
 It's the world that's confused, (you hear the words that I say)
                    Am C G G  - F  
 And it's never to late... to save a hopeless case...

Bridge:  
 F G F C G F 
  Your giving me perspective, (woah), It's better than mine, (woah)
      C C C C C G 
 and I'll still be defective, and you're wasting your time...

Pre-chorus:

       G F Em C 
  The truth is that I'm self-destructive, I'm insecure, I'm out of focus
      G F C 
 The truth is that I've had enough, but you still help me,

Chorus:
    G Em Am 
   You, you don't see me that way, you hear the words that I say,
                      C G 
 You just tell me my heart's in the right place, (you hear the words that I say)
                            Em 
  It's the world that's confused, (you hear the words that I say)
                      Am C G 
  And it's never too late... to save a hopeless case, (you hear the words that I say)
                       Em 
  And my head is on straight, (you hear the words that I say)
                      Am C G 
  And it's never too late... to save a hopeless case...



                                      END

Farther Than Your Grace Can Reach chords – Jonathan Pierce

 Farther Than Your Grace Can Reach -
Jonathan Pierce
 C Dm7 Em F C Dm7 Em F C G/B Am F 
I lie awake at night and wonder
 C G/B Am F 
How You can still put up with me
 C G/B Am G 
I know I push You to the limits
    D/F# F G 
Or so it seems
 C G/B Am F 
And I start each day with good intentions
 C G/B Am F 
And fail You in a thousand ways
 C G/B Am G 
But still You keep forgiving me
        D/F# F G 
Of the same mistakes
 C Dm7 Em F C 
No fault, no wrong, no dark of night
      Dm7 Em F 
Can hide me from Your eyes
 C Dm7 Em F 
And I cannot fall or climb
 Dm7 Em G C 
Farther than Your grace can reach

 C Dm7 Em F C G/B Am F 
I know You’ve heard this prayer I’m praying
 C G/B Am F 
What I’ve done and where I’ve been
 C G/B Am G 
And Lord I don’t deserve Your mercy
     D/F# F G 
But once again

You say

 C Dm7 Em F 
No fault, no wrong, no dark of night
 C Dm7 Em F 
Can hide me from Your eyes
 C Dm7 Em F 
And I cannot fall or climb
 Dm7 Em G C G/B 
Farther than Your grace can reach
 Am G F Em Dm7 G 
Rock of ages, cleft for me
 C G/B Am F 
God bless us all the weak and weary
 C G/B Am F 
Captives of our flesh and blood
 C G/B Am G 
Our only freedom is the refuge
 D/F# F G 
Of Your love
 C Dm7 Em F C 
No fault, no wrong, no dark of night
      Dm7 Em F 
Can hide me from Your eyes
 C Dm7 Em F 
And I cannot fall or climb
 Dm7 Em G C 
Farther than Your grace can reach
 Dm7 Em G C 
Farther than Your grace can reach

 Dm7 Em F C 
             Ooh--------

Some Girls Are Bigger Than Others Tabs by Smiths V3

 Credit goes to http://www.youtube.com/watch?v=yh1nKVtjOg8

e|--------0-----------|-----0-----------­-|
B|-----------0-----0--|--------0--------­-|
G|--------------------|-----------4---4-­-|
D|-----6--------6-----|-------------4---­-|
A|--4-----------------|-/2--------------­-|
E|--------------------|-----------------­-|

e|-----------0-------|--------0---------­||
B|-------------------|-----4-----4------­||
G|--------8-------0--|-------------2----­||
D|-----7-------/6----|-/4------------4--­||
A|--0----------------|------------------­||
E|-------------------|------------------­||



e|--------0----------4-------|
B|-----4-----4---4-----4---4-|
G|-------------4---4-----4---|
D|-/6------------------------|
A|---------------------------|
E|---------------------------|

e|-----4--------------|----------------|   |--0-0-0-0-0-0-0-0-----|
B|--------5--4--------|----5-----7-----|   |--0-0-0-0-0-0-0-0-----|
G|--------------6-----|-------------8--|   |--1-1-1-1-1-1-1-1-----|
D|-----------------6--|-/7---/9--------|­x3   |--2-2-2-2-2-2-2-2----|
A|--4-----------------|----------------|   |--2-2-2-2-2-2-2-2-----|
E|--------------------|----------------|   |--0-0-0-0-0-0-0-0-----|

Better Than Life chords – Christian

 Intro: Capo 1st fret  G  –  D  –  Em  –  C  (2x)

 G D 
Better than the riches of this world
 Em C 
Better than the sound of my friends voices
 G D 
Better than the biggest dreams of my heart
 Em C 
And that’s just the start
 G D 
Better than getting what I say I need
 Em C 
Better than living the life that I want to
 G D 
Better than the love anyone could give
 Em C 
Your love is

Pre Chorus: 
        G/B Am7 G 
You hold me now in Your arms
          C D  –  Em  –  C  
And never let me go,    Oh…

                G D         
Chorus: You oh Lord makes the sun shine
                 Em7 C 
And the moon light in the night sky
 G D 
You give me breath and all Your love
 Em C 
I give my heart to You because
       
         G4 D4                        Em4
Tag: I can’t stop falling in love with You
                          C4                               ( G )
I’ll never stop falling in love with You

Bigger Than Kiss chords – Teenage Bottlerocket V2

 Teenage Bottlerocket
Bigger Than Kiss
They Came From Shadows
2009 Fat Wreck Chords
Submitted by: jeremyunderground41

Key:  D 

Tuning: Standard EADGBe

Chords used:
 Bm  - x24432
 G  -  320033
 D  -  xx0232
 A  -  x02200
 Em  - 022000


Intro: D-Bm--D-A--D-G-D-A-D-Bm-- x2, Bm-- x2


Verse 1:
 Bm 
Detroit couldn't rock 
   G 
itself out of a paper
 Em Bm 
bag Gene Simmons
looks kinda cool
           G 
But Paul Stanley
kinda looks like a
 Em Bm 
jag Ace Frehley
can play guitar
        G 
But he ain't no
               Em 
fucking Kerry King
             Bm 
So get your ass
out of the way
Here comes a
rock revolution
        G 
Listen up cause 
              Em 
I'm about to sing


Chorus 1:
               D 
The creatures of the
 Bm 
night Can't hold a
 D A 
candle to this We'll
    D G 
be kicking ass 
          D A 
we'll be taking names
            D 
When we're bigger than
 Bm D 
Kiss I never thought
   Bm 
cocaine Could be
    D A 
as good as this
       D G 
We'll live our lives
        D A 
in alcoholic bliss
            D 
When we're bigger
      Bm 
than Kiss Rock!


Guitar Solo: 
G-D-A-Bm-G-D-A--
G-D-A-Bm-G-A-Bm--
Bm-- x4


Verse 2:
        Bm 
Me and Charlie
we have it loud
          G 
Yeah you know we 
                   Em 
rock and roll all night
       Bm 
Paul Stanley fell down 
                      G 
on stage and broke a hip
                       Em 
Let's hope he's not alright
     Bm 
The ladies don't like 
                G 
old men Now my love gun
                 Em 
is the one in demand
     Bm 
And we're gonna go
down in history
        G 
As the world's greatest
               Em 
rock and roll band


Chorus 2:
               D 
The creatures of the
 Bm 
night Can't hold a
 D A 
candle to this We'll
    D G 
be kicking ass 
          D A 
we'll be taking names
            D 
When we're bigger than
 Bm D Bm 
Kiss Calling Doctor Love 
           D A 
hey get a load of this
     D G 
Ray beat the piss out
    D A 
of Peter Criss Now
       D Bm 
we're bigger than Kiss Go!!!


Outro: Guitar Solo 
G-D-A-Bm-G-D-A--
 G - D - A - Bm - G - A -Bm(hold)

Harder Than You Think intro Tabs by Public Enemy V2

 Not saying this is perfect but I just feel it sounds more exact. I'm sure you guys 
could figure out the strumming. ENJOY!

e ||---X---|---X---|---X---|---X---|---4---|
B ||---5---|---7---|---9---|---11--|---5---|
G ||---4---|---6---|---8---|---10--|---6---|
D ||---2---|---4---|---6---|---8---|---6---|
A ||---0---|---X---|---X---|---X---|---0---|
E ||---X---|---X---|---X---|---X---|---X---|