Tag: theme

Outer Senshi Theme Tabs – Misc Soundtrack

 This is my first ever tab so don't be a Sailor Uranus about it. Anyways, I'm pretty
sure the guitar tab to this song doesn't exist anywhere else yet as of 1/6/2016.
So you have no choice but to give this 5 stars by default AHAHAHAHAHA!!!!
-------------------------------------------------------------------------------------------------------------
                             Outer Senshi Theme - Sailor Moon - Takanori Arisawa (R.I.P.)
-------------------------------------------------------------------------------------------------------------

: Ludnorc


Tuning:E Standard

Violin part transposed to guitar
E|-------------------------------------|---------------------------------------------|
B|--------------10---------------------|-----------------10--------------------10----|
G|-9---9--11-12----12-11-9-------------|---9---9--11--12----12--11--9-11-12----------|
D|---9----------------------12-10---12-|-----9---------------------------------------|
A|-------------------------------------|---------------------------------------------|
E|-------------------------------------|---------------------------------------------|
                                                                                           - - - - - - - [[[}
|-------------8-----------------10-8--|------------8---11-8-------------------8--10--|
|12-9-10-12----10-------------------12|-10------10---12-----10--------10--12---------|
|------------------9-12-11--11--------|----11-12---------------11-12-----------------|
|-------------------------------------|----------------------------------------------|
|-------------------------------------|----------------------------------------------|
|-------------------------------------|----------------------------------------------|

the above repeats then the song ends with;

|-12-------|
|----------|
|----9-----|
|----------|
|----------|
|----------|



Huh this guitar tab kinda looks like a pistol..weird...

Fallout 4 – Main Theme Tabs – Misc Computer Games Vsion 2

 -------------------------------------------------------------------------------
                             Fallout 4 - Main Theme
-------------------------------------------------------------------------------
: Dan Foy

Tuning: Standard


Intro
     main                                   background
e|---------------------------------------------------------------------------|
B|---------------------------------------------------------------------------|
G|------------------------------------------8-10-8---------------------------|
D|----------------------------5----------------------------------------------|
A|---3-6--7----3-6--7----3-6----5--3-5---------------------------------------|
E|---------------------------------------------------------------------------|


Chorus 1
     main              background     main            background              
e|----------------------------------------------------8--10------------------|
B|----------------8--------8----------------------8--------------------------|
G|---7--5---3--5--5----5-8---7-3-5----8--10---7-3-5--------------------------|
D|---------------------------------------------------------------------------|
A|---------------------------------------------------------------------------|
E|---------------------------------------------------------------------------|
     main              background   main            background
e|---------------------8--6--8----------------------8------------------------|
B|----------------8-----------------------------8----------------------------|
G|---8--7--5-3-5--5-----------------8--7--5-3-5-5----------------------------|
D|---------------------------------------------------------------------------|
A|---------------------------------------------------------------------------|
E|---------------------------------------------------------------------------|


Modified intro
     main                                 main/background
e|---------------------------------------------------------------------------|
B|----------------------------------------6----------------------------------|
G|---------------------------------------------------------------------------|
D|------------------4---------------------3----------------------------------|
A|---3--6--7--6--3---------3--6--7--6--3-------------------------------------|
E|---------------------------------------------------------------------------|


Bridge
     main
e|----------------------------------6--7--9--9-------------------------------|
B|-----------------------6--8--9-9-------------------------------------------|
G|---5--8--9----5--8--9------------------------------------------------------|
D|---------------------------------------------------------------------------|
A|---------------------------------------------------------------------------|
E|---------------------------------------------------------------------------|


High chorus/swell
     main                 background      main/background
e|---11--12--11--9----9-----------------------------------6--9--9------------|
B|-----------------12-----------------------7-----------9-7--7--9------------|
G|------------------------9-8-9--6---6----9---8---6-6-6-6--------------------|
D|---------------------------------9-7----------9-8-6-8----------------------|
A|---------------------------------------------------------------------------|
E|---------------------------------------------------------------------------|


Outro
    main
e|---------------------------------------------------------------------------|
B|---------------------------------------------------------------------------|
G|-----------------------------6---------------------------------------------|
D|--------------------------7--6---------------------------------------------|
A|---4--7--8---4--7---7--9-----4---------------------------------------------|
E|--------------------5--5---------------------------------------------------|




I waited years f

Roary The Racing Car Theme intro Tabs – Misc Television

 -------------------------------------------------------------------------------
                             Roary The Racing Car Theme
-------------------------------------------------------------------------------
: Daniel Bis
 danbis1999

Tuning: Standard

E|--------------------------------------------------------
B|--10-------------------------------10-------------------
G|------9--9--9--9--7--------------------9--9--9--9--7----
D|---------------------7--------------------------------7-
A|--------------------------------------------------------
E|--------------------------------------------------------
 ♫ Roar-y The Ra-c-ing Car         Roar-y My num-ber one star ♫

E|---------------------------------------------------------
B|---------------------------------------------------------
G|-7--7--7--7-----9--9--9--9-----7--7--7--7-----9--9--9--9-
D|---------------------------------------------------------
A|---------------------------------------------------------
E|---------------------------------------------------------
 ♫ He's comin' to the line      Watch out Roary!
               Lookin Real fine               They're right behind ya!
                                                                     Come on! ♫
-Repeat-


Yeah that's about it :)
Best to listen to the theme on YouTube as well
Message me if needs changes
Thanks

Dekopul Kandulin Thema Ama Theme chords – Lahiru Perera

 [Adlib]
-----------------------------------
 Em D C B7  
Ahhh ha ... ha ....

[Chorus]
-----------------------------------
         Em 
Dekopul kandulin thema
          D               (Dsus4)
Tholpethi nalalatha thaba
         C D 
Nikmuna da hisa simba ma
           C B7 
Lathawemi ra thun yame..
         C D Em 
Suhadiniye...   ohh hoo....

[Verse 1]
-------------------------------------
 Em 
Min peradi api me wage
      D 
Wen wee yannata athi
    C G 
Me kandulu ganga ime kothenaka ho
      Cmaj7 
Mage jeewithe iki bindi
     D 
Oba deneth yali yali soyai
     C G 
Api patha aa wage wen wee yai

     D 
Oba papu thure ma hindi
      Am    
Mage papu thure oba hindi
    B                (B7)        G 
Lanwenna wenne nam na suhadiniye...

[Chorus]
-----------------------------------
         Em 
Dekopul kandulin thema
          D               (Dsus4)
Tholpethi nalalatha thaba
         C D 
Nikmuna da hisa simba ma
           C B7 
Lathawemi ra thun yame..
         C D Em 
Suhadiniye...   ohh hoo....

[Inter]
------------------------------------
| Em   |-   | D   |-   |
| C    | D    | C   | B    |
|-   | C    | D   | Em   |
|-   |

[Verse 2]
------------------------------------
      Em 
Sudu sinindu mal pethi wage
     D 
Gilihi yannata athi
      C                
Mudu suwanda denila ime 
           G 
Dethena pipi

     Cmaj7 
Hamuweema premaya nowe
    D 
wenweema premaya wadai
        C G 
Api patha awa wage wen wee yai

     D 
Obe sihina wala ma hindi
      Am 
Mage sihina wala oba hindi
   B                (B7)         G 
E piyawi lokaya nowei suhadiniye...

Fireman Sam Theme chords – Misc Television V3

 E A5 E A5 
When he hears that fire-bell chime,
 E A5 B5 C#m B5 C#m 
Fireman Sam is there on time.
 E A5 E A5 
Putting on his coat and hat,
    E A5 B5 C#m 
in less than seven seconds flat.


      E F A B5 
He's always on the scene. Fireman Sam!
         E F A B5 
And his engine's bright and clean. Fireman Sam!
     D#m E C#m F# A5 B5 
You can not ignore, Sam is the hero next door.


 E A5 E A5 
Driving down the busy streets,
 E A5 B5 C#m B5 C#m 
greeting people that he meets.
 E A5 E A5 
Someone could be in a jam,
     E A5 B5 C#m 
so, hurry hurry Fireman Sam.


      E F A B5 
He's always on the scene. Fireman Sam!
         E F A B5 
And his engine's bright and clean. Fireman Sam!
     D#m E C#m F# B 
You can not ignore, Sam is the hero next door.

Steven Universe Theme Tabs – Rebecca Sugar

 -------------------------------------------------------------------------------
                             SONG NAME - Band Name
-------------------------------------------------------------------------------
:


Tuning:

e|---------------------------------------------------------------------------|
B|----0-----------0-----------0-----------0-----------0----------------------|
G|------2-0-2-------2-0-2-------2-0-2-0-----2-0-2-0-----2-0-2-0--------------|
D|--0---------2-0---------0-0-----------2-----------2-----------2-0-2-2-0----|
A|---------------------------------------------------------------------------|
E|---------------------------------------------------------------------------|

e|---------------------------------------------------------------------------|
B|--0-----------0------------------------------------------------------------|
G|----2-0-2-0-----2-2-0------------------------------------------------------|
D|------------2--------------------------------------------------------------|
A|---------------------------------------------------------------------------|
E|---------------------------------------------------------------------------|


************************************

| /   slide up
| \   slide down
| h   hammer-on
| p   pull-off
| ~   vibrato
| +   harmonic
| x   Mute note
| b   Bend

************************************

Halo Theme Tabs – Halo V4

 Halo Theme Song
Standerd Tuning
Credit to BobbyCrispy
https://www.youtube.com/channel/UCS_ZvrrdEhaURjEku83Xy4g?spfreload=10
http://bobsguitarlessons.yolasite.com

E----------------------------|
B----------------------------|
G---------------2------------|
D---2--4--5--4-----5--4--2---|
A----------------------------|
E----------------------------|

E-------------------------|
B-------------------------|
G---4--6--7--6-----6--4---|
D---------------7---------|
A-------------------------|
E-------------------------|

E----------------------------|
B----------------------------|
G---------------------2------|
D------------2--4--5-----4---|
A---2--4--5------------------|
E----------------------------|

E-------------------------|
B-------------------------|
G-------------------------|
D---2--5--4--2--4-----2---|
A------------------5------|
E-------------------------|

E------------------------------------------------------------|
B------------------------------------------------------------|
G------------------------------------------------------------|
D------------------------------------------------------------|
A---------7---------9---------10---------12---------12-10-9--|
E---0-0-0-----0-0-0-----0-0-0------0-0-0------0-0-0----------|

E--------------------------------------------------------|
B--------------------------------------------------------|
G--------------------------------------------------------|
D--------------------------------------------------------|
A---------7-7-7-------10-----------12-12---------10-9-7--|
E---0-0-0-------0-0-0----0---0-0-0---------0-0-0---------|

E--------------------------------17--18--20--18--17------|
B---15-18-15-20-( 4 times )--20----------------------20--|
G--------------------------------------------------------|
D--------------------------------------------------------|
A--------------------------------------------------------|
E--------------------------------------------------------|

E---12-15-12-17-( 4 times )--12--14--15--14--12------12--|
B------------------------------------------------15------|
G--------------------------------------------------------|
D--------------------------------------------------------|
A--------------------------------------------------------|
E--------------------------------------------------------|

The Munsters Theme chords – Misc Television

 Verse I:

 Dm Eb Dm C Dm 
When you are walking the street at night, and behind you there's no one in view,

                         Eb A Dm 
but you hear mysterious feet at night, then the Munsters are following you.

                                 Eb Dm C Dm 
If you should meet this strange family, just forget what some people have said.

                                  Eb A Dm 
The Munsters may shake your hand clammily, but they're not necessarily dead.

 
    C F G C Bb A 
Behind their house you mustn't be afraid to see a figure digging with a spade.

    Dm Eb Dm 
Perhaps someone didn't quite make the grade with the Munsters, with the Munsters.


Verse II:

 Dm Eb Dm C Dm 
 If when you're sleeping you dream a lot, ghoulish nightmares parade thru your head.

                            Eb A Dm 
And then you wake up and scream a lot, oh the Munsters are under your bed.

                                  Eb Dm C Dm 
At midnight if creatures should prowl about and if vampires and vultures swoop down

                                       Eb A Dm 
and werewolves and friends shriek and howl about, well the Munsters are out on the town.


     C F G C Bb A 
One night I dared peek thru their window screen. My hair turned white at such a crazy scene,

   Dm Eb Dm 
because every evening it's Halloween, at the Munsters, at the Munsters.

The Last Of Us Main Theme intro Tabs – Misc Soundtrack

 -------------------------------------------------------------------------------
                           The Last Of Us Main Theme - Naughty Dog Company
-------------------------------------------------------------------------------
:Andrei 
al.trandafir

Tuning: E A D G B e


e|-----0-----0------0------0------0------0-------0-------0-|
B|---0-----0------0------0------0------0-------0-------0---|
G|12-----9-----14-----11-----12-----12------12------12-----|
D|---------------------------------------------------------|
A|---------------------------------------------------------|
E|---------------------------------------------------------|


e|-----0-----0-----0-----0------0------0-------0------0----|
B|---0-----0-----0-----0------0------0-------0------0------|
G|12-----9----14----11-----16-----16------16-----16--------|
D|---------------------------------------------------------|
A|---------------------------------------------------------|
E|---------------------------------------------------------|



e|-----0------0------0------0------0------0------0-------0-|
B|---0------0------0------0------0------0------0-------0---|
G|12-----9-----14-----11-----12-----12------12-----12------|
D|---------------------------------------------------------|
A|---------------------------------------------------------|
E|---------------------------------------------------------|


e|-------0------0------0----0------0-------0----0~---------|
B|-----0------0------0----0------0------0-----0~-----------|
G|--15-----14-----12----9------9-----9------9~-------------|
D|---------------------------------------------------------|
A|---------------------------------------------------------|
E|---------------------------------------------------------|



************************************

| /   slide up
| \   slide down
| h   hammer-on
| p   pull-off
| ~   vibrato
| +   harmonic
| x   Mute note
| b   Bend
| pb  Pre-bend
| br  Bend release
| pbr Pre-bend release
| brb Bend release bend

************************************

Friday The 13Th Nes – Cabin Theme Tabs – Misc Computer Games

 
#----------------------------------PLEASE NOTE---------------------------------#
#This file is the author's own work and represents their interpretation of the #
#song. You may only use this file for private study, scholarship, or research. #
#------------------------------------------------------------------------------##



Friday the 13th - Cabin Theme from the NES


Gtr I (E A D G B E)

  Gtr I
   E E E  E E E   E E E E E E    E E E  E E E   E E E E E E
|---------------|-------------|---------------|--------------|
|---------------|-------------|---------------|--------------|
|-11---7-11---7-|-9---6-9---6-|-11---7-11---7-|-9---6-9---6--|
|----9------9---|---8-----8---|----9------9---|---8-----8----|
|---------------|-------------|---------------|--------------|
|---------------|-------------|---------------|--------------|


  E E E E E E   E E E E E E   E E E E E E   E E E E E E
|-------------|-------------|-------------|--------------|
|-------------|-------------|-------------|--------------|
|-9---6-9---6-|-8---5-8---5-|-8---5-8---5-|-6---3-6---3--|
|---7-----7---|---7-----7---|---6-----6---|---5-----5----|
|-------------|-------------|-------------|--------------|
|-------------|-------------|-------------|--------------|


   E E E  E E E   E E E E E E    E E E  E E E   E E E E E E
|---------------|-------------|---------------|--------------|
|---------------|-------------|---------------|--------------|
|-11---7-11---7-|-9---6-9---6-|-11---7-11---7-|-9---6-9---6--|
|----9------9---|---8-----8---|----9------9---|---8-----8----|
|---------------|-------------|---------------|--------------|
|---------------|-------------|---------------|--------------|


  E E E E E E   E E E E E E   E E E E E E   E E E E E E
|-------------|-------------|-------------|--------------|
|-------------|-------------|-------------|--------------|
|-9---6-9---6-|-8---5-8---5-|-8---5-8---5-|-6---5-6---5--|
|---7-----7---|---7-----7---|---6-----6---|---6-----6----|
|-------------|-------------|-------------|--------------|
|-------------|-------------|-------------|--------------|


  E E E E E E   E E E E E E   E E E E E E   E E E E E E
|-------------|-------------|-------------|--------------|
|-------------|-------------|-------------|--------------|
|-------------|-------------|-------------|--------------|
|-8-5-7-8-5-7-|-8-5-7-8-5-7-|-8-5-7-8-5-7-|-8-5-7-8-5-7--|
|-------------|-------------|-------------|--------------|
|-------------|-------------|-------------|--------------|


   E  E  E  E  E  E    E  E E E E  E   E E E E E E   E E E E E E
|-------------------|----------------|-------------|--------------|
|-------------------|----------------|-------------|--------------|
|-12-------10-------|-10------8------|-8-----7-----|-7-----5------|
|-------10----10-12-|-------8---8-10-|-----6---6-8-|-----6---5-6--|
|----11-------------|----10----------|---8---------|---6----------|
|-------------------|----------------|-------------|--------------|


   E  E  E  E  E  E    E  E E E E  E   E E E E E E   E E E E E E
|-------------------|----------------|-------------|--------------|
|-------------------|----------------|-------------|--------------|
|-12-------10-------|-10------8------|-8-----7-----|-7-----5------|
|-------10----10-12-|-------8---8-10-|-----6---6-8-|-----6---5-6--|
|----11-------------|----10----------|---8---------|---6----------|
|-------------------|----------------|-------------|--------------|


Assassins Creed 3 Theme solo Tabs – Misc Computer Games

 -------------------------------------------------------------------------------
               Assassin's Creed III Main Theme- Ubisoft
-------------------------------------------------------------------------------
:Andrei260902
al.trandafir

Tuning: E A D G B e

e|---------------------------------|
B|---------------------------------|
G|----3p2---0-2--------2p0----0----|
D|--0-----------0----0------3---2--|
A|---------------------------------|
E|---------------------------------|          X2

e|----------------------------------|
B|----------------------------------|
G|-----3-3-2-2------2-2-0-0---------|
D|-0-0----------0-0---------0-0-3-3-|
A|----------------------------------|
E|----------------------------------|  X2


e|---------------------------------|
B|---------------------------------|
G|----3p2---0-2--------2p0----0----|
D|--0-----------0----0------3---2--|
A|---------------------------------|
E|---------------------------------|          X2




************************************

| /   slide up
| \   slide down
| h   hammer-on
| p   pull-off
| ~   vibrato
| +   harmonic
| x   Mute note
| b   Bend
| pb  Pre-bend
| br  Bend release
| pbr Pre-bend release
| brb Bend release bend

************************************

Pokemon – Fire Red Theme Tabs by Misc Computer Games

 -------------------------------------------------------------------------------
                             Fire Red Title Screen- Gamefreak
-------------------------------------------------------------------------------
: Cruz.Cruz.71404
 Cruz.Clues

Tuning: Standard tuning


First tab, couldn't find any decent ones here so i decided to tab it myself

e|-----------------------------------------------------------------------------|
B|-----------------------------------------------------------------------------|
G|-----------------------------------------------------------------------------|
D|-----------------------------------------------------------------------------|
A|-0-0-7--0-0-8--0-0-7--0-0-4--0-0-7--0-0-11-12--10--0-0-7--0-0-8--0-0-7-------|
E|-----------------------------------------------------------------------------|

e|---------------------------------------------------------------------------------|
B|---------------------------------------------------------------------------------|
G|--------------------------14-----------------------------------------------------|
D|---------------------------------------------------------------------------------|
A|-0-0-4--0-0-7--0-0-11-12------14--14--14.14.14--14o--14o--11-12-11-12-11-12------|
E|---------------------------------------------------------------------------------|

e|-----------------------------------------------------------------------------|
B|-----------------------------------------------------------------------------|
G|----------9-9p8p7---------------------999999--11-14-11--11.11.11.11.11.11----|
D|----6-9-6---------9999-6-9-----6-9-6-----------------------------------------|
A|-7----------------------------7----------------------------------------------|
E|-----------------------------------------------------------------------------|

e|-----------------------------------------------------------------------------|
B|-----------------------------------------------------------------------------|
G|-14-11-9-989898--------------------------------------------------------------|
D|-----------------------------------------------------------------------------|
A|-----------------14--14--14.14.14--14o--14o----------------------------------|
E|-----------------------------------------------------------------------------|


************************************

| /   slide up
| \   slide down
| h   hammer-on
| p   pull-off
| ~   vibrato
| +   harmonic
| x   Mute note
| b   Bend
| pb  Pre-bend
| br  Bend release
| pbr Pre-bend release
| brb Bend release bend

************************************

Mst3k Theme chords – Misc Television

 -------------------------------------------------------------------------------
                             MST3K Theme - Joel and the Joels
-------------------------------------------------------------------------------
: Siesmatters
Tuning: Standard E A D G B E
Reference: http://www.mst3kinfo.com/mstfaq/lyrics.html


          E B 
  In the not-too-distant future --
        E B 
  Next Sunday A.D. --
         E B 
  There was a guy named Joel,
           E B 
  Not too different from you or me.
      E B 
  He worked at Gizmonic Institute,
         E B 
  Just another face in a red jumpsuit.
      E B 
  He did a good job cleaning up the place,
           F#m 
  But his bosses didn't like him
           B 
  So they shot him into space.

         E B 
  We'll send him cheesy movies,
       E B 
  The worst we can find (la-la-la).
         E B 
  He'll have to sit and watch them all,
             E B 
  And we'll monitor his mind (la-la-la).
       E B 
  Now keep in mind Joel can't control
             E B 
  Where the movies begin or end (la-la-la)
     E B 
  Because he used those special parts
      F#m B 
  To make his robot friends.


  Robot Roll Call: (All right, let's go!)

  Cambot! (Pan left!)

  Gypsy! (Hi, girl!)

  Tom Servo! (What a cool guy!)

  Croooow! (He's a wisecracker.)

             E B 
  If you're wondering how he eats and breathes
       E B 
  and other science facts (la la la),
          E B 
  Then repeat to yourself, "It's just a show,
            F#m B 
  I should really just relax
       Am Bm B 
  For Mystery Science Theater 3000!"

Grand Prix 2 Theme – Geoff Crammond Tabs by Misc Computer Games

 -----------------------------------------------------------------------------
                     GRAND PRIX 2 THEME - Geoff Crammond
-----------------------------------------------------------------------------
: Matthew Needham
 matthew.needham@outlook.com

Tuning: Standard

This is the main theme song from Geoff Crammond's Grand Prix 2. It's a PC game made by 
MICROPROSE based on the 1994 Formula 1 season. Recently discovered the song again and 
have become obsessed with trying to work out how to play it! Hopefully I've done 
it justice! Cheers!

I should really have put GUITAR 1,2,3,4 etc. because you can't play all of this at the 
same time but you can record each part and put it together as I have done and it sounds MINT!

-(28/01/2014) I haven't worked it all out yet so I'll update it when I can! In the 
meantime, please suggest improvements to make it sound more like the actual song! :)

RIFF 1
For the first riff you can either play
             THIS                   OR                 THIS
e|--------------------------------|   |-------------------------------------|
B|--------------------------------|   |-------------------------------------|
G|-2--2--2-0--0--0-2--2--2-0--0--0|   |-------------------------------------|
D|-0--0--0-0--0--0-0--0--0-0--0--0| or|-7--7--7-5--5--5-7--7--7-5--5--5-----|
A|--------------------------------|   |-5--5--5-5--5--5-5--5--5-5--5--5-----|
E|--------------------------------|   |-------------------------------------|

This riff goes on for quite some time and the other parts are gradually layered.

RIFF 2

This riff is played from the start along with RIFF 1 and is only played alongside it. 
Try listening to the song to work out timings.
Depending on what you chose to play as RIFF 1, you can either play
D|--0-0-0-0--| OR A|--5-5-5-5--| but I'll tab it as open because I think it sounds better.

pm - - - - - - - - - - - - - - - - - - - - - - - - - - - - - - - - - - - - -
e|--------------------------------------------------------------------------|
B|--------------------------------------------------------------------------|
G|--------------------------------------------------------------------------|
D|-0-0-0-0-0-0-0-0-0-0-0-0-0-0-0-0-0-0-0-0-0-0-0-0-0-0-0-0-0-0-0-0-0-0-0-0-0|
A|--------------------------------------------------------------------------|
E|--------------------------------------------------------------------------|

RIFF 3
If you listen to the YouTube video recording entitled: 'GrandPrix 2 Soundtrack - Menu 1 
Clean Music', you'll hear a guitar come in at around 0:27 with quite heavy OVERDRIVE.
HOLD CHORD FOR 4 BARS (1 whole of RIFF 1) THEN IT COMES IN AGAIN AT THE START OF RIFF 1
e|--------------------------------------------------------------------------|
B|--------------------------------------------------------------------------|
G|--------------------------------------------------------------------------|
D|-12>>>>>>>>>>>>>>>>-------------------------------------------------------|
A|-12>>>>>>>>>>>>>>>>-------------------------------------------------------|
E|-10>>>>>>>>>>>>>>>>-------------------------------------------------------|

RIFF 4
At 0:41 a nice riff comes in which is after you've played RIFF 3, 2 and about a quarter 
times, you'll know when to play because it will feel right.

e|--------------------------------------------------------------------------|
B|-----6~-6b-6~-------------------------------------------------------------|
G|-5h7~--------7-5-7~~~~~/--------------------------------------------------|
D|--------------------------------------------------------------------------|
A|--------------------------------------------------------------------------|
E|--------------------------------------------------------------------------|

Unfortunately, this is as far as I've managed to get! But I did this all in about 2 
hours and I wanted to document and share wh

Reindeers Are Better Than People Theme Tabs by Misc Soundtrack

 This is finger picked, so I'm not sure how to bring it across 100% in tab form - but if
you listen to the song you'll get what I mean. The lyrics match up to the notes he's
playing as he sings. Also, you're welcome to play the full chords (as listed). The 
soundtrack version uses mostly bar chords with the second note omitted - I find this easier to
play, but it's up to you!

, any comments/corrections are appreciated!

Reindeers Are Better Than People (from the Disney Animation Studios production, Frozen),
sung by Jonathan Groff.

-------------------------------------------------------------------------------
                             Reindeers Are Better Than People - Misc Soundtrack
-------------------------------------------------------------------------------
: cuddlycombine
 systematicapostasy

Tuning: standard
Intro guitar: (0:00 - 0:03)

e|---------------------------------------------------------------------------|
B|---------------------------------------------------------------------------|
G|---------------------------------------------------------------------------|
D|---------------------------------------------------------------------------|
A|---------------------------------------------------------------------------|
E|---------------------------------------------------------------------------|

e|--------------------------------------5----------------------------------------------------|
B|-------------------------------------------------------------------------------------------|
G|------4--5-4------------------6------------------------------------------------------------|
D|-------------------------------------------------------------------------------------------|
A|-----5---7-5----------7--------------------------------------------------------------------|
E|----3--------------------------------------------------------------------------------------|

Kristoff (0:04 - 0:11)

    "Reindeers are better than people,    Sven don't you think that's true?
e|---5-----------------------------------------------------------------5---------------------|
B|---7-------------------------------------------------------------------------7-------------|
G|---7-------------6-----------7------5---4--------------6-----------------6---5-------------|
D|-----------------7-----------7----------5--------------7-------------4-------0-------------|
A|---5-------------------------5-------------------------------------------------------------|
E|-----------------5----------------------3--------------5-----------------------------------|
     D             A           D          G              A             D       D7

Sven: (0:12 - 0:17)

"Yeah people will beat you and curse you and cheat you, every one of them's bad - except you!
e|-------------------------------------------------------------------------------------------|
B|----8-------------------------------------------------------8------------------------------|
G|----9-----------6------------7-------------8----------------9-------------6------------7---|
D|----------------7------------7-------------7------------------------------7------------7---|
A|----7------------------------5-------------9----------------7--------------------------5---|
E|----------------5---------------------------------------------------------5----------------|
      Em          A            D             B7               Em            A            D

Kristoff: (0:17-0:19)

"Oh, thanks buddy."
e|----------------------5--------------------------------------------------------------------|
B|-------------------------------------------------------------------------------------------|
G|-------------------6-----------------------------------------------------------------------|
D|------------------7------------------------------------------------------------------------|
A|-----------------0---

Adventure Time Theme Tabs by Misc Cartoons

 Song: Adventure Time Theme
Tab: Greygloom

Here's the Theme Song to my favorite TV-Show


Tempo: 164bpm

The Melody
    4+      1+   2  +3+  4      1+ 2  +  3  +4 +     1+ 2+ 3+ 4+
e|-------|--3----3--3----3---|--2--0-----0--------|--------------------------|
B|-------|-------------------|--------3-----3--0--|--1--0--------------------|
G|--0----|-------------------|--------------------|--------2--0--------------|
D|-------|-------------------|--------------------|--------------------------|
A|-------|-------------------|--------------------|--------------------------|
E|-------|-------------------|--------------------|--------------------------|

     1  +2 +  3+ 4+    1+ 2  +3+ 4+    1+ 2  +3  +4 +     1+2 +  3+ 4  +
e|------------------|--3--3--3---3--|--2--0------------|---------------------|
B|------------------|---------------|--------3-p-0--0--|--1---1--1--3--3-----|
G|------1--0--------|---------------|------------------|---------------------|
D|------------2--0--|---------------|------------------|---------------------|
A|------------------|---------------|------------------|---------------------|
E|------------------|---------------|------------------|---------------------|

    1+ 2  +  3+ 4+     1+   2+3+4+
e|-----------------|---3-----------------------------------------------------|
B|--3--0--0--------|---3-----------------------------------------------------|
G|-----------2--0--|---0-----------------------------------------------------|
D|-----------------|---------------------------------------------------------|
A|-----------------|---------------------------------------------------------|
E|-----------------|---------------------------------------------------------|



Background Music
    -            G           D           C           D
    4+           1+2+3+4+    1+2+3+4+    1+2+3+4+    1+2+3+4+
e|------------|--3--------|--2--------|--3--------|--2-----------------------|
B|------------|--3--------|--3--------|--5--------|--3-----------------------|
G|------------|--4--------|--2--------|--5--------|--2-----------------------|
D|------------|--5--------|--0--------|--5--------|--0-----------------------|
A|------------|--5--------|-----------|--3--------|--------------------------|
E|------------|--3--------|-----------|-----------|--------------------------|

After this it's the same chord pattern as for the previous 4 bars (G D C D)
Just use this strumming pattern   
                             aand the last bar
     1+  2  +3  +  4  +        1+2+3+4+
e|---x---x--x---x--x--x--|  |--3--------|                  
B|---x---x--x---x--x--x--|  |--3--------|
G|---x---x--x---x--x--x--|  |--4--------|
D|---x---x--x---x--x--x--|  |--5--------|
A|---x---x--x---x--x--x--|  |--5--------|
E|-----------------------|  |--3--------|

Lyrics:
  G               D
Adventure Time, c'mon grab your friends
      C          D
We'll go to very  distant lands.
G                     D
With Jake the dog and Finn the human.
    C
The fun will never end.
D              G
It's Adventure Time!


Have Fun

Teenage Mutant Ninja Turtles Theme chords – Misc Cartoons

 CAPO 1

 B D 
Teenage Mutant Ninja Turtles, Teenage Mutant Ninja Turtles,

 E D B A B 
Teenage Mutant Ninja Turtles, Heroes in a half-shell, TURTLE POWER!

Verse
 D E D B 
They're the world's most fearsome fighting team,

 D E D B 
They're heroes on a half-shell and they're green,

 E F# 
When the evil Shredder attacks,

 G A 
These Turtle boys don't cut him no slack!

 B D 
Teenage Mutant Ninja Turtles, Teenage Mutant Ninja Turtles,

 E D B A B 
Teenage Mutant Ninja Turtles, Heroes in a half-shell, TURTLE POWER!



 D E B                       
Splinter taught them to be ninja teens

 D E B 
Leonardo leads, Donatello does machines

 E F# 
Raphael is cool, but crude

 G A 
And Michelangelo is a party dude!


 B D 
Teenage Mutant Ninja Turtles, Teenage Mutant Ninja Turtles,

 E D B A B 
Teenage Mutant Ninja Turtles, Heroes in a half-shell, TURTLE POWER!

Sherlock Bbc Theme – The Game Is On Tabs by Misc Soundtrack

 Just correcting Sherlock Bbc Theme (The game is on) from http://tabs.ultimate-
guitar.com/m/misc_soundtrack/sherlock_bbc_theme_ver2_tab.htm 
in my way (i'd like this way of playing ^^")
Please enjoy :)

e|------------------------------------------------------------------------|
B|------------------------------------------------4-----------------------|
G|-------------------------5-------5--5-4h5h7--5--------------------------|
D|-----5--5--4h5h6--5--3------3-------------------------------------------|
A|--3---------------------------------------------------------------------|
E|------------------------------------------------------------------------|

e|--3----------------1-------------------1--------------------------------|
B|----1---1-3h4h3--1---1-----1--3--4---4---3---3--4--1---1--3-----------1-|
G|-------------------------------------------------------------4--1--0----|
D|------------------------------------------------------------------------|
A|------------------------------------------------------------------------|
E|------------------------------------------------------------------------|

Hearthstone Theme Tabs by Blizzard

 Part 1
e-------------------------------------|
b---3h6p3-----------------------------|
g---------5--2h5p2----2--2-5p0--------|
d------------------5--0h3-----0--3-2--|
a---------------------0---------------|
d---0-----2--3-----5------------------|

e--10h13p10---------------------------|
b----------13-10h13p10------10-13---6-|
g---------------------12---10----12---|
d-------------------------12----------|
a-------------------------------------|
d--0-0--------0-0-------------------3-|

And the harp bit at the end
e-5-8-5-------|
b------8-5----|
g---------5-7-|
d-------------|
a-------------|
d-------------|

Part 2
e-------------------------------------------------------|
b-------------------------------------------------------|
g-------------------------------------------------------|
d--0-0h2h3-2----0-0h2h3p2---0-0h2h3-2h3p2p0-------------|
a---0-------3--0-0-----------0-------------3-0h3---5----|
d-----------------------------------------------5/7-5h7-|

e-------------------------------------------------------|
b-------------------------------------------------------|
g-------------------------------------------------------|
d--0-0h2h3-2----0-0h2h3/5---0-0h2h3-2h3h5p3p2p0---------|
a-0-0-------3--0-0-----------0--------------------------|
d-------------------------------------------------------|

e-------------------------------------------------------|
b-------------------------------------------------------|
g--2h5p2-----2h5p2-----2h5p2-0h2p0----------------------|
d-------5p0h5-----5p0h5---------------------------------|
a---------------------------------7p5p3h5---------------|
d-------------------------------------------------------|

Part 3
e-------------------------------------------------------|
b-------------------------------------------------------|
g-------------------------------------------------------|
d-3--3--3-5-7/5--0h3p0-----0h3p0------3-3-5-7p5-5p3p2---|
a--3--3---------------3p0h3-----3p0h3--3-------3--------|
d-------------------------------------------------------|

e-------------------------------------------------------|
b-------------------------------------------------------|
g-------------------------------------------------------|
d-0h3p0-----0--0---3--3--3-5-7/5--0h3p0-----0h3p0-------|
a------3p0h3-3--3---3--3---------------3p0h3-----3p0h3--|
d-------------------------------------------------------|

e---------------------------------------|
b---------------------------------------|
g---------------------------------------|
d-3--3-5-7p5-5-5p3-0h3p0------0---------|
a--3--------3-----5-----3p0h3---0-------|
d---------------------------------0h3p0-|

(Part 2 again)

Part 4
e-----------------------------------------|
b-----------------------------------------|
g-----------------------------------------|
d-----------------------------------------|
a--0-0-----0-0-----0-0--0-0--0-0--5p3p2p0-|
d-----------------------------------------|

e-----------------------------------------|
b-----------------------------------------|
g-----------------------------------------|
d-----------------------------------------|
a--0-0--0-0--0-0--0-0--0-0--0-0--0-0--0-0-|
d-----------------------------------------|

Part 5
e-----------------------------|
b-----------------------------|
g-----------------------------|
d---2--2--3--2--2--2--0--2----| 3x
a--0--0--0--0--0--0--0--0-----|
d-----------------------------|

e-----------------------------|
b-----------------------------|
g-----------------------------|
d---2--2--3--2--2--2----------|
a--0--0--0--0--0--0--0-5320---|
d-----------------------------|

e-----------------------------|
b-----------------------------|
g-----------------------------|
d---2--2--3--2--2--2----------|
a--0--0--0--0--0--0--0-532023-|
d-----------------------------|

e-----------------------------|
b-----------------------------|
g-----------------------------| 2x
d--2--2--3--2--2