Tag: thousand

Worth A Thousand Words chords – Mayday Parade

 Hey guys. This is one of my favorite songs on Mayday Parade's new album Monsters In The Closet. 

Mayday Parade is one of my favorite bands, and when i saw that this song had no chords online

 i thought i would figure them out, I did the best i could.





Verse

     Bm G 
I'm not your perfect picture
     D                       
I'm not your favorite song
     A 
I'm not your hand to hold
          Bm G 
Not the answer to your problems
           D A 
So don't talk to me like I'm some hero laced in gold

Pre-chorus

     Bm 
And I can't love you 
    G D 
No I can't love you enough
                     A 
The thoughts been eating away what's love

    Bm 
And I can't love you 
    G D A 
No I can't love you enough

Chorus

     (A)       Bm
So promise me you'll try 
         G D 
You're cut away from something that I can't change
        A 
We're about to break
    (A)     Bm
And even if you lie
      G 
The world will just forgive you
      D A 
But don't forget that our love is dead


Verse

        Bm G 
We're meant to be the strong ones
           D A 
Yet the things we think about are the things we can't control
    Bm 
But I can't help but struggle
      G 
(But I can't help but struggle)
            D A 
When the person that I am is the person I don't know


Pre-chorus

       Bm                        
I've broken in the brightest city
        G D 
And I fall apart to all the pretty songs
                     A 
The thoughts been eating away once again
       Bm                             
It's hard to talk when there's no meaning 
      G 
I'm half awake and far from dreaming
      D 
And every time you call my name
    A 
I swear to you I'll come 

Chorus

     (A)       Bm
So promise me you'll try
        G D 
You're cut away from something that I can't change
        A 
We're about to break
    (A)     Bm
And even if you lie
      G               
The world will just forgive you
      D A 
But don't forget that our love is dead


Bridge

         Bm 
I could be your heart
           G 
Reaching for the stars
      D 
Run away with me
          A 
We know what we are 
     (A)       Bm
So promise me you'll try
     G D 
To grab a hold of something to keep you safe
         A 
And I promise that I'll sing you to sleep
    (A)
(I promise that I'll sing you to sleep)


   Bm 
Believe me
        G D 
When they've been mistaken for a tragedy 
        A 
It's obvious you're faking
            Bm G D A 
But you're not convincing me you're singing along

Instrumental

 Bm  -  G  -  D  -  A  x2

Chorus

     (A)       Bm
So promise me you'll try
        G D 
You're cut away from something that I can't change
        A 
We're about to break
    (A)     Bm
And even if you lie
      G               
The world will just forgive you
      D A 
But don't forget that our love is dead
         Bm 
I could be your heart
           G 
Reaching for the stars
      D 
Run away with me
          A 
We know what we are 
                Bm 
So promise me you'll try
     G</span

Glow Tabs – Thousand Foot Krutch

 -------------------------------------------------------------------------------
                         Glow - Thousand Foot Krutch
-------------------------------------------------------------------------------
: StevenBeaven90
 stevenkotelnikov
Feel free to email me if you have any questions about this tab or any other of my tabs.

Tuning: Drop D
Note: Not all the bends in the song are equal. Some are small and quick while others are 
big and extend over a couple of seconds. Listen to make the distinction.

[Intro](0:00-0:08)
Guitar 1
e|---------------------------------------------------------------------------|
B|---------------------------------------------------------------------------|
G|-----9-----9--------7-----7--------7-----7---------7------7----------------|
d|---7-----7--------7-----7--------7-----7---------9------9------------------|
A|-------------------------------8-----8------8/10-----10------10------------|
D|-7-----7------7-5-----5------5---------------------------------------------|

Guitar 2
e|---------------------------------------------------------------------------|
B|---------------------------------------------------------------------------|
G|-------------------------------------------------4-------------------------|
d|--------------------------------------------5------7---5-------------------|
A|--------------------------------------------5------------------------------|
D|---------------------------------------------------------------------------|

[Verse I](0:08-0:45)
Guitar 1 (x4)
e|---------------------------------------------------------------------------|
B|---------------------------------------------------------------------------|
G|-----9-----9--------7-----7--------7-----7---------7------7----------------|
d|---7-----7--------7-----7--------7-----7---------9------9------------------|
A|-------------------------------8-----8------8/10-----10------10------------|
D|-7-----7------7-5-----5------5---------------------------------------------|

Guitar 2
e|---------------------------------------------------------------------------|
B|---------------------------------------------------------------------------|
G|-------------------------------------------------4-------------------------|
d|--------------------------------------------5------7-5b--------------------|
A|--------------------------------------------5--------5b--------------------|
D|---------------------------------------------------------------------------|

e|---------------------------------------------------------------------------|
B|---------------------------------------------------------------------------|
G|-------------------------------------------------4-------------------------|
d|--------------------------------------------5------7-5b--------------------|
A|--------------------------------------------5--------5b--------------------|
D|---------------------------------------------------------------------------|

e|---------------------------------------------------------------------------|
B|---------------------------------------------------------------------------|
G|-------------------------------9b------------------------------------------|
d|------------------------------------------------------9b-------------------|
A|---------------------------------------------------------------------------|
D|---------------------------------------------------------------------------|

e|---------------------------------------------------------------------------|
B|---------------------------------------------------------------------------|
G|-----------------------------------------------4---------------------------|
d|-------------------------------3---2-----/5------7---5---------------------|
A|---------------------------------------3-/5--------------------------------|
D|---------------------------------------------------------------------------|

[Pre-chorus I](0:45-1:03)
Guitar 1
e|-------

A Thousand Years Tabs by Sungha Jung V2

 By: Darwin Taladiar

this is my first tab.rate pls. :)

Capo on 3rd fret.
This version is Sungha Jung's

Intro:
e---7--7--7------5----7--7--7-----5----8--8--8--7----7--------5--3--2----|
B---8--8--8-----------8--8--8-----7----5--5--5-------8--8-----3--3------3|
G--------------------------------------5-------------7--7-----2----------|
D------------------------------------------------------------------0--0--|
A----------------9-------------------------------------------------------|
E---10----------------0--------------------------------------------------|

Verse: YOU WILL DO THE VERSE 2X
3X
e----------------------------|
B---------------3------------|
G---0------------------------|
D--------2-----------2-------|
A---3------------------------|
E----------------------------|

e----------------------------|
B---0------------------------|
G------2---0-----------------|
D----------------------------|
A---3------------------------|
E----------------------------|

3x
e----------------------------|
B-----------3----------------|
G--0-------------------------|
D------0---------0-----------|
A--2-------------------------|
E----------------------------|

e---------------------------------------------------------------------------|
B--3---1p0-----------------------------3---1p0--------------0---------------|
G----------------2p0---0----0--------------------2---2-----------------0h2--|
D-------------0-----------2------2-------------------0--0-------4----------0|
A--2---------------------------2--------------------------------------------|
E----------------------0---------------0------------------------2---2-------|

Pre-Chorus
YOU WILL BE STRUMMING IN THIS PART.
e----33333-----000---222------33333-----0h2---------------------------|
B----33333-----333---333------33333-----3-----------------------------|
G----00000-----000---000------00000-----2-----------------------------|
D----22222-----222---222------00000-----0-----------------------------|
A----00000-----000---000------22222-----X-----------------------------|
E----XXXXX-----XXX---XXX------33333-----X-----------------------------|

CHORUS:
e-----------------------0------------------------------|
B--0-3p0-------0-3p0----------------3------------------|
G--0-0-----0---0-0------------0---------2--0-----------|
D--0-------0---0------------0---0----------------------|
A------------------------------------------------------|
E--3-----------3--------3---------------2--------------|


e-----------------------0------------------------------|
B--0-3p0-------0-3p0----------------3------------------|
G--0-0-----0---0-0------------0---------2--0-----------|
D--0-------0---0------------0---0-------0--------------|
A------------------------------------------------------|
E--0-----------0--------3------------------------------|

Thousand Secrets chords – Sahara Smith

 Thousand Secrets – Sahara Smith
Capo III

Verse 1: 
 D Em 
Blue light breaking on the window glass & cool wind shaking in the long white grass
 G A D 
The ocean speaks the language of the dawn
 D Em 
Thin sails rising on the autumn sky, and the old man’s singing while the knots untie
 G A D 
I looked back and all the ships are gone. 

Chorus:
 Em D 
And no one’s gonna know
 Em G D 
The thousand little secrets that are slippin’ through the undertow.
 Em G D A 
There’s a quiet hunger I have curled myself inside 
 Em A D 
and it’s a thousand secrets wide. 

Sold white carnations in an neon bar
And when he turned sixteen he bought a stolen car, 
Drove all the way to Dallas in the dark.
And I could fall in love but I’m so damn young
And I try to hold on but then the quicker rains come
And everytime they fall it breaks my heart. 

Chorus:
And no one’s gonna know
The thousand little secrets that are slippin’ through the undertow.
There’s a quiet hunger I have curled myself inside 
and it’s a thousand secrets wide. 

Bridge:

 G A Bm G A Bm 
Every broken bridge, there’s mile of fallen leaves.
 G A Bm G A D 
And no one knows the river flows a thousand miles deep. 

Verse 3:
Wanna walk on water, wanna walk downstream,
I wanna walk back to New Orleans, with the crash of broken glass in the yard.
I wanna quit this city in the midnight hush of a pale moon shinin’ on a southbound bus.
You never know what you’ve lost until you lose it hard. 

Chorus/Outro:
And no one’s gonna know
The thousand little secrets that are slippin’ through the undertow.
There’s a quiet hunger I have curled myself inside 
and it’s a thousand secrets wide. 
There’s a quiet hunger I have curled myself inside 
and it’s a thousand secrets wide. 
and it’s a thousand secrets wide. 
and it’s a thousand secrets wide.

Ten Thousand Angels chords – Loretta Lynn

 Ten Thousand Angels
Recorded by Loretta Lynn
Written by Ray Overholt

 G C G 
He could have called ten thousand angels

                                      D7 G 
They bound the hands of Jesus in the garden where He prayed
      C G 
They led Him through the streets in shame
                              D7 G 
They spat upon the Savior so pure and free from sin
           Am D7 G 
They said crucify Him He's to blame

 G7 C G 
He could have called ten thousand angels
                                
To destroy the world and set Him free
 G7 C G 
He could have called ten thousand angels
                    D7 G 
But He died alone  for you and me

                             D7 G 
Upon His precious head they placed a crown of thorns
      C G 
They laughed and said behold the king
                                         D7 G 
They struck Him and they cursed Him and mocked His holy name
         Am D7 G 
And all alone He suffered everything

Repeat #2

Breathe You In chords – Thousand Foot Krutch V6

 [Verse]
 Bb  
 Taking hold, breaking in 
 F  
The pressures on, need to circulate 
 Gm 
Mesmerized and taken in 
 Eb  
Moving slow, so it resonates 
 Bb  
It's time to rest, not to sleep away 
 F  
My thoughts alone, try to complicate 
 Gm  
I'll do my best, to seek you out 
 Eb  
And be myself, and not impersonate  

[Pre Chorus:] 
 Dm Eb Bb  
I tried so hard to not walk away 
           F Gm  
And when things don't go my way 
                 Eb  
I'll still carry on and on just the same

[Chorus:] 
 Bb F  
I've always been strong 
                      Gm  
But can't make this happen 
                     Eb  
'Cause I need to breathe, I want to breathe you in 
 Bb F  
The fear of becoming
                    Gm  
I'm so tired of running 
                    Eb  
'Cause I need to breathe, I want to breath you in 
I want to breathe you in

[Verse 2:]   
 Bb  
I'm going in, so cover me 
 F  
Your compass will, help me turn the page 
 Gm 
The laughing stock, I'll never be 
 Eb  
Because I won't let them take me  

[Pre Chorus:] 
 Dm Eb Bb  
I tried so hard to not walk away 
           F Gm  
And when things don't go my way 
                 Eb  
I'll still carry on and on just the same

[Chorus:] 
 Bb F  
I've always been strong 
                      Gm  
But can't make this happen 
                     Eb  
'Cause I need to breathe, I want to breathe you in 
 Bb F  
The fear of becoming
                    Gm  
I'm so tired of running 
                    Eb  
'Cause I need to breathe, I want to breath you in 
I want to breathe you in

  [Bridge]  
 Gm Eb Bb F  
Took awhile to see all the love that's around me 
            Gm Eb Bb F  
Through the highs and lows there's a truth that I've known 
 Gm Eb  
And it's you

[Chorus:] 
 Bb F  
I've always been strong 
                      Gm  
But can't make this happen 
                     Eb  
'Cause I need to breathe, I want to breathe you in 
 Bb F  
The fear of becoming
                    Gm  
I'm so tired of running 
                    Eb Bb 
'Cause I need to breathe, I want to breath you in 
I want to breathe you in
 Gm  
I want to breathe you in
                      Eb 
I want to breathe you in 
                Bb 
 I want to, I want to 
                       F  
I want to breathe you in
                       Gm  
I want to breathe you in 
                 Eb  
I want to breathe; I want to, I want to 
 Bb  
Wanna breathe
                F  
I want to breathe you in
              Gm  
I want to breathe you in
            Eb  
I wanna breathe

Christina Perri – A Thousand Years Piano Chords

The song is quite similar to the one played on the guitar.

INTRO:

Play the following on the piano:
A, F#m, Bm, D

First Verse:

A
Heartbeats fast
             F#m
Colours and promises
           Bm
How to be brave
                         D
How can I love when I'm afraid to fall
A
But watching you stand alone
           F#m                      Bm
All of my doubt suddenly goes away somehow
          D    E
One step closer

CHORUS:

A
I have died everyday waiting for you
F#m
Darling don't be afraid I have loved you
    Bm
For a thousand years
                 D        E
I love you for a thousand more

The Second Verse:

A
Time stands still
          F#m
Beauty in all she is
          Bm
I will be brave
                        D
I will not let anything take away
                   A
What's standing in front of me
      F#m
Every breath
      Bm               D
Every hour has come to this
         F#m   E
One step closer

CHORUS:

A
I have died everyday waiting for you
F#m
Darling don't be afraid I have loved you
    Bm
For a thousand years
                 D        E
I love you for a thousand more
A
And all along I believed I would find you
F#m
Time has brought your heart to me I have loved you
    Bm
For a thousand years
                 D        E
I love you for a thousand more

A, F#m, Bm, D, E

A        F#m    E
One step closer
F#m      D    E
One step closer

Repeat Chorus