Tag: time

Adventure Time – Come Along With Me piano chords

[Verse 1]
A        D    G      D
   Come along with me
                         G
And the butterflies and bees
          Bm           G
We can wander through the forest
       D             A
And do so as we please
      D    G      D
Come along with me
                    G
To a cliff under a tree
             Bm           G
Where we can gaze upon the water
          A        D
As an everlasting dream

[Chorus]
F#7            G
All of my collections
          A              D
I'll share them all with you
F#7           G
Maybe by next summer
  D                      A
We won't have changed our tunes

[Verse 2]
         D    G   Bm
I still want to be
                          G
With the butterflies and bees
       Em            G
Making up new numbers
              A      D
And living so merrily

[Chorus]
F#7          G
All of my collections
                          D
I'll share them all with you
  F#7                  G
I'll be here for you always
      E          A
And always be with you

[Outro]
    D      G    D
Come along with me
                        G
And the butterflies and bees
        Bm               G
We can wander through the forest
            A       G
And do so as we please
            A    D
Living so merrily

Afterglow chords by All Time Low

[Intro]
D G

[Verse]
D                   A        G
Step outside in the midnight rain
G                     A        D
King and queen of the streets again
D                      A           G
Got young love running through our veins
G                         A   D
And it keeps us numb like novacaine


[Pre-chorus]
G D                G   D
Alright, we can go all night
                G     D               A
'Cause we got a whole lot of fight in us
            G    D                  G  D
And I see a long road that we gotta follow
       G    D           A
Before tomorrow catches up

[Chorus]
D                   G  D
Oh, we just take it easy
Bm              G   D
Hold on to this feeling
D                   G   D
All our friends are leaving
A
And we ain't got nowhere to go
G
Caught up in the afterglow

[Instrumental]
D G

Caught up in the afterglow

[Verse]
D                       G        D
Can't stay here but you can't go home
        A              G         D
Did you hear that line somewhere before?
    D                  G       D
And you look just fine on your own
    A                     G    D
But we look better in the afterglow

[Pre-chorus]
G D                G   D
Alright, we can go all night
                G     D               A
'Cause we got a whole lot of fight in us
            G    D                  G  D
And I see a long road that we gotta follow
       G    D           A
Before tomorrow catches up

[Chorus]
D                   G  D
Oh, we just take it easy
Bm              G   D
Hold on to this feeling
D                   G   D
All our friends are leaving
A
And we ain't got nowhere to go
G
Caught up in the afterglow

D G

A
And we ain't got nowhere to go
G
Caught up in the afterglow

D                   G  D
Oh, we just take it easy
Bm              G   D
Hold on to this feeling
D                      G   D
Oh, no we don't need a reason
A
Cos we ain't got nowhere to go
G
Caught up in the afterglow

[Outro]
D
When the lights go down
Come find me in the afterglow
D
One turn two without
I'll meet you in the afterglow
D
When the lights go down
Come find me in the afterglow
D
One turn two without
I'll meet you in the afterglow

Drugs And Candy chords by All Time Low

Intro and verse riff:
e|-----------------|--------------|--------------|-------------|
B|-----------------|--------------|--------------|-------------|
G|-----------------|--------------|--------------|-------------|
D|--------8----10--|------8---10--|------8---10--|------8---7--|
A|--10-10---10-----|--6-6---6-----|--------------|--8-8---8----|
E|-----------------|--------------|--6-6---6-----|-------------|

[Intro]
Gm Eb Bb F
Gm Eb Bb F

[Verse 1]
Gm                     Eb                 Bb
  I can't take another hollow point conversation
     F               Gm
It's getting hard to fake
                     Eb            Bb
The sound of you, an outlasting vibration
   F                 Gm
Is something I can't shake

[Pre-Chorus 1]
              Eb           Bb
The sweetness of you on my tongue
               F                 Gm
I breathed you in, you filled my lungs
         Eb                Bb
A bitter taste, surrender, waste
        F
Another weakness

[Intrumental]
Gm

[Chorus 1]
Gm                  Eb
You and me are like drugs and candy
 Bb               F
(Drugs and candy) Ah-ah-ah-ah-ah
Gm                    Eb
Take one down for the young and easy
 Bb              F
(Young and easy) Ah-ah-ah-ah-ah
Gm                     Eb
  You get me out of my head
                         Bb
I fill the space in your bed
                        Cm
High on the beat of the breakdown (Breakdown)
       Gm                  Eb
'Cause you and me are like drugs and candy
 Bb                   C
(Drugs and candy) And I don't wanna give it up

[Intrumental]
Gm

[Verse 2]
Gm                   Eb          Bb
  You caught me in a moment of redemption
        F            Gm
There's nothing to explain
                  Eb           Bb
You had me on the edge of indiscretion
    F                 Gm
You said you feel the same

[Pre-Chorus 2]
              Eb           Bb
The sweetness of you on my tongue
               F                 Gm
I breathed you in, you filled my lungs
         Eb                Bb
A bitter taste, surrender, waste
        F
Another weakness

[Chorus 2]
Gm                  Eb
You and me are like drugs and candy
 Bb               F
(Drugs and candy) Ah-ah-ah-ah-ah
Gm                    Eb
Take one down for the young and easy
 Bb              F
(Young and easy) Ah-ah-ah-ah-ah
Gm                     Eb
  You get me out of my head
                         Bb
I fill the space in your bed
                        Cm
High on the beat of the breakdown (Breakdown)
       Gm                  Eb
'Cause you and me are like drugs and candy
 Bb                   C
(Drugs and candy) And I don't wanna give it up
Gm  Eb  Bb               C
       (Drugs and candy) Ah-ah-ah-ah-ah
Gm  Eb  Bb               C
       (Drugs and candy) Ah-ah-ah-ah-ah

[Intrumental]
Gm  Bb

[Bridge]
Gm                           Eb
  The sweetness of you on my tongue
                                 Bb
I breathed you in, you filled my lungs
                          Bb
A bitter taste, surrender waste
        F
Another weakness

[Chorus 3]
Gm                  Eb
You and me are like drugs and candy
 Bb               F
(Drugs and candy) Ah-ah-ah-ah-ah
Gm                    Eb
Take one down for the young and easy
 Bb           F
(Young and) Easy
Gm                     Eb
  You get me out of my head
                         Bb
I fill the space in your bed
                        Cm
High on the beat of the breakdown, breakdown
Gm                     Eb
   You and me are like drugs and candy
 Bb                  C
(Drugs and candy) No I don't wanna give it up
Gm  Eb  Bb               C
       (Drugs and candy) No I don't wanna give it up
Gm  Eb  Bb               C
       (Drugs and candy) Ah-ah-ah-ah-ah
Gm                     Eb
  You get me out of my head
                        Bb
High on the beat of the breakdown
    C
And I don't wanna give it up
Gm  Eb  Bb               C             Gm
       (Drugs and candy) Ah-ah-ah-ah-ah

Dark Side Of Your Room chords by All Time Low

[Intro]
F Bb

[Verse 1]
F
  This moment feels like an echo
Bb
We've done this dance a thousand times
F
  You say that I need a refill
Bb
And twist me up 'til we blur the lines

[Pre-Chorus 1]
F
Oh-oh-oh
                Bb
Girl you make a fool of my heart
F
Oh-oh-oh
                        Bb
You don't know what you do to me

[Chorus 1]
     F
With nights like these, who needs the days?
     Bb
I'll shut my eyes and sleep them away
           F
I'm on the dark side of your room
                         Bb
With the notches on your bedpost
     F
With friends like you, who needs friends?
  Bb
I shut my mouth and we do it all again
           Dm                C
I'm on the dark side of your room
                         Bb
With the notches on your bedpost. With the notches on your

[Verse 2]
F
  This seems so complicated
Bb
Are these your friends, or are they mine?
F
  They love having you stir me up, up
Bb
And leave me burning like the LA fight

[Pre-Chorus 2]
F
Oh-oh-oh
                Bb
Girl you make a fool of my heart
F
Oh-oh-oh
                        Bb
You don't know what you do to me. Do to me, do to me

[Chorus 2]
     F
With nights like these, who needs the days?
     Bb
I'll shut my eyes and sleep them away
           F
I'm on the dark side of your room
                         Bb
With the notches on your bedpost
     F
With friends like you, who needs friends?
  Bb
I shut my mouth and we do it all again
           Dm                C
I'm on the dark side of your room
                         Bb
With the notches on your bedpost
                         F
With the notches on your bedpost
Bb                              F             Bb
       With the notches on your bedpost

[Bridge]
F
Oh-oh-oh
                Bb
Girl you make a fool of my heart
F
Oh-oh-oh
                        Bb
You don't know what you do to me in the dark

[Chorus 3]
     F
With nights like these, who needs the days?
     Bb
I'll shut my eyes and sleep them away
           F
I'm on the dark side of your room
                         Bb
With the notches on your bedpost
     F
With friends like you, who needs friends? (Who needs friends?)
  Bb
I shut my mouth and we do it all again (Do it all again)
           Dm                C
I'm on the dark side of your room
                         Bb
With the notches on your bedpost
                         F
With the notches on your bedpost

(With friends like you, who needs friends?
  Bb
I shut my mouth and we do it all again
           Dm               C
I'm on the dark side of you room
                         Bb
With the notches on your bedpost)
                         F
With the notches on your bedpost

Ground Control chords by All Time Low ver 2

[Intro]
Bm D F#m E

[Verse 1]
Bm           D
   Ground control
            F#m             E
What do the books say about this one now?
        Bm            D
I think we've lost it all
        F#m                    E             Bm
There's nothing to explain the distances any more
                     D
All systems are critical
                          F#m
Can't find my way back to you
                              E
Feels like there's nowhere to go-oh-oh
    Bm                            D
I'm just out here waiting for you to say
          F#m
Don't be afraid, no
E                      A
If you start floating away

[Chorus 1]
                           E
Hey! I promise you will be fine and have
                     D
The universe on your side when
                                                     F#m
You're out in space (you're out in space). Don't you be afraid, (don't you be afraid) no
E                      A
If you start floating away

                           E
Hey! I promise you will be fine and have
                     D
The universe on your side when
                                                     F#m
You're out in space (you're out in space). Don't you be afraid, (don't you be afraid) no
E                      Bm
If you start floating away

[Instrumental]
D F#m E

[Verse 2]
Bm          D
   Checking in
    F#m            E
300 days with no reply now
        Bm           D
I think I've lost my mind
        F#m                     E                 Bm
There's nothing keeping me from going outside any more
                    D
My systems are critical
                          F#m
Gotta find my way back to you
                        E
Feels like I'm drifting alone
    Bm                         D
I'm just out here wishing that you would say
          F#m
Don't be afraid, no
E                      A
If you start floating away

[Chorus 2]
                           E
Hey! I promise you will be fine and have
                     D
The universe on your side when
                                                     F#m
You're out in space (you're out in space). Don't you be afraid, (don't you be afraid) no
E                      A
If you start floating away

                           E
Hey! I promise you will be fine and have
                     D
The universe on your side when
                                                     F#m
You're out in space (you're out in space). Don't you be afraid, (don't you be afraid) no
E                      Bm
If you start floating away

[Instrumental]
D F#m E

[Bridge]
Bm                 D               F#m
  We gotta make contact to make it out
                 E
We gotta make contact to make it
Bm                 D               F#m
  We gotta make contact to make it out
E                      A
If you start floating away

[Chorus 3]
                           E
Hey! I promise you will be fine and have
                     D
The universe on your side when
                                                     F#m
You're out in space (you're out in space). Don't you be afraid, (don't you be afraid) no
E                      A
If you start floating away

                           E
Hey! I promise you will be fine and have
                     D
The universe on your side when
                                                     F#m
You're out in space (you're out in space). Don't you be afraid, (don't you be afraid) no
E                      A
If you start floating away

[Instrumental]
E D

[Outro]
          F#m
Don't you be afraid, no
E                      A
If you start floating away

Ground Control chords by All Time Low

[Intro]
Bm D F#m E

[Verse 1]
Bm           D
 Ground control
            F#m               E
What do the books say about this one now?
             Bm    A  D
I think we've lost it all
        F#m                     E    
There's nothing to explain the distances any more
Bm               A    D
All systems are critical
                          F#m
Can't find my way back to you
                               E
Feels like there's nowhere to go-oh-oh
   Bm                          D
I'm just out here waiting for you to say
           F#m
Don't be afraid, no
E                       A
If you start floating away

[Chorus]
A
Hey!
                        E       
I promise you we'll be fine and have
                      D
The universe on your side when
You're out in space
          F#m
Don't you be afraid, no
E                       A
If you start floating away

A
Hey!
                        E       
I promise you we'll be fine and have
                      D
The universe on your side when
You're out in space
          F#m
Don't you be afraid, no
E                       Bm
If you start floating away

[Instrumental]
D F#m E

[Verse 2]
Bm    A   D
 Checking in
    F#m              E
300 days with no reply now
           Bm     A   D
I think I've lost my mind
        F#m                      E
There's nothing keeping me from going outside any more
Bm                  D
My systems are critical
                         F#m
Gotta find my way back to you
                          E
Feels like I'm drifting away-oh-oh
     Bm                         D
I'm just out here wishing that you would say
           F#m
Don't be afraid, no
E                       A
If you start floating away

[Chorus]
A
Hey!
                        E       
I promise you we'll be fine and have
                      D
The universe on your side when
You're out in space
          F#m
Don't you be afraid, no
E                       A
If you start floating away

A
Hey!
                        E       
I promise you we'll be fine and have
                      D
The universe on your side when
You're out in space
          F#m
Don't you be afraid, no
E                       Bm
If you start floating away

[Instrumental]
D F#m E

[Bridge]
Bm                 D             F#m
 We gotta make contact to make it out
                  E
We gotta make contact to make it
Bm                 D             F#m
 We gotta make contact to make it out

E                       A
If you start floating away

[Chorus]
A
Hey!
                        E       
I promise you we'll be fine and have
                      D
The universe on your side when
You're out in space
          F#m
Don't you be afraid, no
E                       A
If you start floating away

A
Hey!
                        E       
I promise you we'll be fine and have
                      D
The universe on your side when
You're out in space
          F#m
Don't you be afraid, no
E                       A
If you start floating away

[Outro]
E D 
         F#m         
Don't you be afraid, no
E                       A
If you start floating away

Nightmares chords by All Time Low

[Verse]
Am                          G
There's a little house on a perfect little hill
G                F
 Just short of a fairytale
Am                            G
There's a little child with a million ways to feel
G                F
 Caught up in a  hurricane
C     Am
Paper thin walls
G                 F
 Angry words from down the hall
C         Am
Something changed them
G                       F
I think about him every now and again

[Chorus]
C                          G
Now there's a ghost at the back of this room
    Am       G
And I don't like it
C                     G
I fall asleep with my covers pulled up
    Am     G
And try to fight it
C                 C
 I gotta say it's hard to be brave
C                        G
When you're alone in the dark
C                   Am
I told myself that I wouldn't be scared
    Am   G     F               C
But I'm still having nightmares (I'm wide awake, I'm wide awake)
    G      F               C
I'm still having nightmares (I'm wide awake, I'm wide awake)

[Verse]
Am                          G
Every little thing got me coming back around
G               F
 Digging up old memories
Am            G
Always used to be the one to let it go
G                  F
 Got my fears in a suitcase
   C          Am
I locked them away
G                F
 In a place they couldn't find
C          Am
They still haunt me
G                       F
 I think about it every now and again

[Chorus]
C                          G
Now there's a ghost at the back of this room
    Am       G
And I don't like it
C                     G
I fall asleep with my covers pulled up
    Am     G
And try to fight it
C                 C
 I gotta say it's hard to be brave
C                        G
When you're alone in the dark
C                   Am
I told myself that I wouldn't be scared
    Am   G     F               C
But I'm still having nightmares (I'm wide awake, I'm wide awake)
    G      F               C
I'm still having nightmares (I'm wide awake, I'm wide awake)

[Bridge]
C                          G
Now there's a ghost at the back of this room
    Am       G
And I don't like it
C                     G
I fall asleep with my covers pulled up
    Am     G
And try to fight it

[Chorus]
C                          G
Now there's a ghost at the back of this room
    Am       G
And I don't like it
C                     G
I fall asleep with my covers pulled up
    Am     G
And try to fight it
C                 C
 I gotta say it's hard to be brave
C                        G
When you're alone in the dark
C                   Am
I told myself that I wouldn't be scared
    Am   G     F               C
But I'm still having nightmares (I'm wide awake, I'm wide awake)
    G      F               C
I'm still having nightmares (I'm wide awake, I'm wide awake)

C                 C
 I gotta say it's hard to be brave
C                        G
When you're alone in the dark
C                   Am
I told myself that I wouldn't be scared
    Am   G     F               C
But I'm still having nightmares (wide awake, wide awake)
    G      F               C
I'm still having nightmares (wide awake, wide awake)

For The First Time Chords by Mac DeMarco

Artist:Mac DeMarco
Song  :For the First Time 

Chords arranged for guitar from synths. The suggested chord shapes below sound good on guitar. 
Also the Eb6 can also be played as a Ebmaj7. 

e|---------|---------|----3----|---(6)---|----3----|----3----|
B|----9----|---(4)---|----5----|----6----|----3----|----5----|
G|----8----|----5----|----3----|----8----|----3----|----3----|
D|----10---|----5----|----5----|----8----|----3----|----5----|
A|----8----|----6----|----x----|----x----|----5----|----3----|
E|---------|---------|----3----|----6----|----3----|---------|
     Fm7       Eb6       C7/G     Bbsus4      Gm7       C7        


[Verse 1]
Fm7             
While she's been away
                            Eb6   
Living day-to-day has been tough
Fm7
I found her at my side
                            Eb6   
Simply being alive's been rough
             Fm7
You know she won't be gone forever
                                Eb6    
There are many times I find it feels that way
             Fm7
And I'm not trying to forget her
                                  C7/G
Just understand how I'll be feeling on that day

[Chorus]
                      Fm7           Bbsus4     Gm7   C7
It's just like seeing her for the first time again
                      Fm7           Bbsus4     Eb6
It's just like seeing her for the first time again

[Verse 2]
Fm7
The time she's not around
                               Eb6   
Somewhere out-of-town has been hard
     Fm7                                                  Eb6   
But somehow this old heart found time to work it out this far
       Fm7                        
No, I know she's coming home soon
                                  Eb6   
There are times I find it hard to feel that way
          Fm7                       
It's not inside me to forget her
                                  C7/G
Just understand how I'll be feeling on that day

[Chorus]
                      Fm7           Bbsus4     Gm7   C7
It's just like seeing her for the first time again
                      Fm7           Bbsus4     Eb6   C7
It's just like seeing her for the first time again
                      Fm7           Bbsus4     Gm7   C7
It's just like seeing her for the first time again
                      Fm7           Bbsus4     Eb6
It's just like seeing her for the first time again


Tabbed by Trystan H

Coffee Shop Soundtrack Acoustic Tabs – All Time Low Vsion 3

 Coffee Shop Soundtrack (acoustic version)
Artist: All Time Low
 Put Up or Shut Up (2006)

Tuning: D#A#F#C#G#D#

Given that this song is played a little different in every acoustic performance done by the band, 
I put this tab together using bits and pieces of several of their performances, including some addition
of my own, to achieve the best possible sound. For reference, it's closest this version of the song:



Intro:
Eb|-0-0-0-0--0~0-0-0-0-0-0-0--0-0-0-0--0~0-0-0-0-0-0-0--|
Bb|-0-0-0-0--0~0-0-0-0-0-0-0--0-0-0-0--0~0-0-0-0-0-0-0--|
Gb|-6-6-6-6--2~2-2-4-4-4-4-4--6-6-6-6--2~9-9-8-8-8-8-8--|
Db|-6-6-6-6--2~4-4-6-6-6-6-6--6-6-6-6--2~7-7-6-6-6-6-6--| 
Ab|-4-4-4-4--0~x-x-x-x-x-x-x--4-4-4-4--0~x-x-x-x-x-x-x--| 
Eb|-x-x-x-x--0~x-x-x-x-x-x-x--x-x-x-x--0~x-x-x-x-x-x-x--|

Eb|-0-0-0-0-0-0--0-0-0-0-0-0-0-0--0-0~|
Bb|-0-0-0-0-0-0--0-0-0-0-0-0-0-0--0-0~|
Gb|-1-1-1-1-1-1--1-1-4-4-4-4-4-4--4-4~|
Db|-2-2-2-2-2-2--2-2-1-1-1-1-1-1--1-1~|
Ab|-2-2-2-2-2-2--2-2-2-2-2-2-2-2--2-2~| 
Eb|-0-0-0-0-0-0--0-0-x-x-x-x-x-x--x-x~|


Eb|-0-0-0-0--0~~~-0--0--0--0--0--0--0---0-0-0-0--0~0-0-0-0-0-0-0--|
Bb|-0-0-0-0--0~~~-0--0--0--0--0--0--0---0-0-0-0--0~0-0-0-0-0-0-0--|
Gb|-6-6-6-6--13~~-13-13-13-13-13-13-13--6-6-6-6--2~9-9-8-8-8-8-8--|
Db|-6-6-6-6--11~~-11-11-11-11-11-11-11--6-6-6-6--2~7-7-6-6-6-6-6--| 
Ab|-4-4-4-4--x~~~-x--x--x--x--x--x--x---4-4-4-4--0~0-0-0-0-0-0-0--| 
Eb|-x-x-x-x--x~~-~x--x--x--x--x--x--x---x-x-x-x--0~x-x-x-x-x-x-x--|
 

Eb|-0-0-0-0-0-0--0-0-0-0-0-0-0--0-0~|
Bb|-0-0-0-0-0-0--0-0-0-0-0-0-0--0-0~|
Gb|-1-1-1-1-1-1--1-1-4-4-4-4-4--4-4~|
Db|-2-2-2-2-2-2--2-2-4-4-4-4-4--4-4~|
Ab|-2-2-2-2-2-2--2-2-2-2-2-2-2--2-2~| 
Eb|-0-0-0-0-0-0--0-0-x-x-x-x-x--x-x~|


Verse 1:
Should I write myself out of the history books...for every chance you took?

Eb|-0-0-0-0--0~0-0-0-0-0-0-0--0-0-0-0--0~0-0-0-0-0-0-0--0-0-0-0--0~0-0-0-0-0-0-0--0-0-0-0--|
Bb|-0-0-0-0--0~0-0-0-0-0-0-0--0-0-0-0--0~0-0-0-0-0-0-0--0-0-0-0--0~0-0-0-0-0-0-0--0-0-0-0--|
Gb|-6-6-6-6--2~2-2-4-4-4-4-4--6-6-6-6--2~9-9-8-8-8-8-8--6-6-6-6--2~2-2-2-2-2-2-2--4-4-4-4--|
Db|-6-6-6-6--2~4-4-6-6-6-6-6--6-6-6-6--2~7-7-6-6-6-6-6--6-6-6-6--2~2-2-2-2-2-2-2--4-4-4-4--| 
Ab|-4-4-4-4--0~x-x-x-x-x-x-x--4-4-4-4--0~x-x-x-x-x-x-x--4-4-4-4--0~0-0-0-0-0-0-0--2-2-2-2--| 
Eb|-x-x-x-x--0~x-x-x-x-x-x-x--x-x-x-x--0~x-x-x-x-x-x-x--x-x-x-x--0~0-0-0-0-0-0-0--x-x-x-x--|

Eb|-0~0-0-0-0-0-0-0--|
Bb|-0~0-0-0-0-0-0-0--|
Gb|-2~2-2-2-2-2-2-2--|
Db|-2~2-2-2-2-2-2-2--|
Ab|-0~0-0-0-0-0-0-0--| 
Eb|-0~0-0-0-0-0-0-0--|


Don't get me wrong...take the hint, someday

Eb|-0-0-0-0--0~~0--0--0--0--0--0--0---0-0-0-0--0~0-0-0-0-0-0-0--|
Bb|-0-0-0-0--0~~0--0--0--0--0--0--0---0-0-0-0--0~0-0-0-0-0-0-0--|
Gb|-6-6-6-6--13~13-13-13-13-13-13-13--6-6-6-6--2~2-2-4-4-4-4-4--|
Db|-6-6-6-6--11~11-11-11-11-11-11-11--6-6-6-6--2~4-4-6-6-6-6-6--| 
Ab|-4-4-4-4--x~~x--x--x--x--x--x--x---4-4-4-4--0~0-0-0-0-0-0-0--| 
Eb|-x-x-x-x--x~~x--x--x--x--x--x--x---x-x-x-x--0~x-x-x-x-x-x-x--|

I'm sure I'll get the picture, and stop waiting up

Eb|-0-0-0-0--0~0-0-0-0-0-0-0--0-0-0--x-x-x-x--|
Bb|-0-0-0-0--0~0-0-0-0-0-0-0--0-0-0--x-x-x-x--|
Gb|-6-6-6-6--2~2-2-2-2-2-2-2--4-4-4--x-x-x-x--|
Db|-6-6-6-6--2~2-2-2-2-2-2-2--1-1-1--x-x-x-x--| 
Ab|-4-4-4-4--0~0-0-0-0-0-0-0--2-2-2--x-x-x-x--| 
Eb|-x-x-x-x--0~0-0-0-0-0-0-0--x-x-x--x-x-x-x--|

NOTE: Palm muted strokes at the end are optional- you can just continue by playing the final chord for 
an extra beat into the chorus. I just think it sounds good with it!

Chorus:

When it all comes down....carry home?

Eb|-0-0-0-0--0-0-0-0--0-0-0-0--0-0-0-0--0-0-0-0--|
Bb|-0-0-0-0--0-0-0-0--0-0-0-0--0-0-0-0--0-0-0-0--|
Gb|-1-1-1-1--2-2-2-2--6-6-6-6--4-4-4-4--2-2-9-8--|
Db|-2-2-2-2--2-2-2-2--6-6-6-6--4-4-4-4--2-2-7-6--|
Ab|-2-2-2-2--0-0-0-0--4-4-4-4--2-2-2-2--0-0-x-x--|
Eb|-0-0-0-0--0-0-0-0--x-x-x-x--x-x-x-x--0-0-x-x--|

The remains of my wasted youth....shaking in waiting for something more

Eb|-0-0-0-0--0-0-0-0--0-0-0-0--0-0-0-0--0-0-0~--|
Bb|-0-0-0-0--0-0-0-0--0-0-0-0--0-0-0-0--0-0-0~--|
Gb|

Time To Kill Tabs – Overkill Vsion 1

 OVERKILL - TIME TO KILL
(The Years Of Decay, 1989)

Key
= after note = vibrato
^ after note = heavy vibrato
\\ = slide down
/ = slide up
+ = tap
h = hammer
p = pull
n = natural harmonic
s = pinching harmonic (squeal)
* = tremolo pick
t = trill
b = bend
|-3-| = triplet

n number above the tab = play the first part then the first finishing part
                         play the first part a second time and then play the second finishing part
                         etc.

Riff 1

E ------------------------------------------------------------------
B ------------------------------------------------------------------
G ------------------------------------------------------------------
D -2---------------5---------------5---------5---------2------------
A -2---------------5---------------5---------5---------2------------
E -0---------0-2-0-3---------0-2-0-3---0-2-0-3---0-2-3-0------------

Riff 1A

E --------------------------------------------------------------------------
B --------------------------------------------------------------------------
G --------------------------------------------------------------------------
D -9---------9-11-9-12---------9-11-9-12---9-11-9-12---9-11-12-9------------
A --------------------------------------------------------------------------
E --------------------------------------------------------------------------

Riff 1B

E -----------------------------------------------------
B -----------------------------------------------------
G -----------------------------------------------------
D -2---------------5---------------5---------5---------
A -2---------------5---------------5---------5---------
E -0---------0-2-0-3---------0-2-0-3---0-2-0-3---0-2-3-

Riff 1C

E -------------------------------------------------------------
B -------------------------------------------------------------
G -------------------------------------------------------------
D -9---------9-11-9-12---------9-11-9-12---9-11-9-12---9-11-12-
A -------------------------------------------------------------
E -------------------------------------------------------------

Riff 1D

E ---------------------------------------------------------
B -15b17------------18b20------------18b20------18b20------
G ---------------------------------------------------------
D ---------------------------------------------------------
A ---------------------------------------------------------
E ---------------------------------------------------------

Riff 2

E ---------------------------------------------------------------------------------
B ---------------------------------------------------------------------------------
G ---------------------------------------------------------------------------------
D -2---------5---------3---------6---5---2---------5---------3---------5-----5-----
A -2---------5---------3---------6---5---2---------5---------3---------5-----5-----
E -0---0-0-0-3---0-0-0-1---0-0-0-4---3---0---0-0-0-3---0-0-0-1---0-0-0-3-0-0-3-0-0-

Riff 2A

E ------------------------------
B ------------------------------
G ------------------------------
D ----2---2---2---2---2---2---2-
A ----2---2---2---2---2---2---2-
E ----0---0---0---0---0---0---0-

Riff 2B

E -----------------------------------------------------------------------------------------------------------
B -----------------------------------------------------------------------------------------------------------
G -----------------------------------------------------------------------------------------------------------
D -2---------5---------3---------6---5---2---------5---------3---------5-----5-----2---------5-----5-----2---
A -2---------5---------3---------6---5---2---------5---------3---------5-----5-----2---------5-----5-----2---
E -0---0-0-0-3---0-0-0-1---0-0-0-4---3---0---0-0-0-3---0-0-0-1---0-0-0-3-0-0-3-0-0-0---0-0-0-3-0-0-3-0-0-0---

E -------------------
B -------------------
G -------------------
D -------5-----5-----
A -------5-----5-----
E -0-0-0-3-

By The Time I Get To Phoneix chords – Glen Campbell

 
By The Time I get to Phoenix
Glen Travis Campbell


Intro:  F Gm F Bb 

Verse 1

 Gm F Gm                   
By the time I get to Phoenix, she'll be rising.  She'll find the note I left
          F Bb C 
hanging on her door.   She'll laugh, when she reads the part, that says I'm 
 Am Gm D# C 
   leaving, cause I've left that girl so many times before.

Verse 2

       Gm F Gm 
By the time I make Albuquerque, she'll be working.  She'll probably stop at
                      F Bb C Am       dm
lunch and give me a call.   But she'll just hear that phone keep on ringing 
 Gm D# C        
off the wall, thats all.

Verse 3 


 Gm F 
By the time I make Oklahoma,  she'll be sleeping.
       Gm F Bb C    
She'll turn softly and call my name out low.  And she'll cry,  just to think, 
           Am Dm Gm C F Bb 
I'd really leave her.   Though time and time I've tried to tell her so.
      Gm A7 D C D C D 
She just didn't know,    I would really go.


Different version


Intro:  Fmaj7/A Gm7 Fmaj7/A Bbmaj7 

Verse 1

 Gm7 Fmaj7 Gm7                   
By the time I get to Phoenix, she'll be rising.  She'll find the note I left 
        Fmaj7 Bbmaj7 Cadd9 Am7      
hanging on her door.   She'll laugh, when she reads the part, that says I'm 
  Dm Gm7 Eb C7   
leaving cause I've left that girl so many times before.

Verse 2

       Gm Fmaj7 Gm7 
By the time I make Albuquerque, she'll be working.  She'll probably stop at 
                    Fmaj7 Bbmaj7 Cadd9 Am7 Dm  
lunch and give me a call.   But she'll just hear that phone keep on ringing 
  Gm7 Eb C7       
off the wall, thats all.  


 Gm7 Fmaj7 
By the time I make Oklahoma,  she'll be sleeping.
       Gm7 Fmaj7 Bbmaj7 Cadd9    
She'll turn softly and call my name out low.  And she'll cry,  just to think,
          Am7 Dm Gm7 C7 Fmaj7   
I'd really leave her.   Though time and time I've tried to tell her so.
 Bmaj7 Gm7 A7 D Am7 Am9 D Am7 Am9 D 
        She just didn't know,    I would really go.

flyinglibra51
God Bless Glen Travis Campbell 

A Wound Time Cant Erase chords – Stonewall Jackson

 G D7 
Have you found since you turned me down

                                 G 
The one that you were searching for

                       D7 
Are you glad that you made me sad

                                       G 
For you know I vowed to love you ever more
 

          D7 
What did you have in mind when you broke this heart of mine

         C G 
Are you laughing in my face

         D7 
Darling what can I do when you say we are through

            C D7 G 
You left a wo-o-und time can't erase

 
                       D7 
Tell me dear are you satisfied

                           G 
To be footloose and fancy free

                              D7 
Is it power you want for the things that you have done

                                    G 
What you gained I guess I'll never see


          D7 
What did you have in mind when you broke this heart of mine

         C G 
Are you laughing in my face

         D7 
Darling what can I do when you say we are through

            C D7 G 
You left a wo-o-und time can't erase

 
 

Time Of Your Life chords – Glen Campbell

 Time of your life              
Glen Campbell 


INTRO  G C D G C D      


Verse 1


 G C D 
Another turning point a fork stuck in the road,
 G C D   
Time grabs you by the wrist directs you where to go
 Em D C G 
So make the best of this test and don't ask why
 Em D C G 
It's not a question but a lesson learned in time
 Em G Em G              
Its something unpredictable but in the end it's right
 Em D G 
I hope you had the time of your life.

  G C D G C D     

Verse 2

 G C D 
So Take the photographs and still frames in your mind
 G C D 
Hang it on the shelf in good health and good time
 Em D C G 
Tattoos and memories and dead skin on trial
 Em D C G     
For what it's worth it was worth all the while
 Em G Em G              
Its something unpredictable but in the end it's right
 Em D G 
I hope you had the time of your life.

 G C D G C D G C D G C D Em D G Em D C G 


Verse 3

 Em G Em G              
Its something unpredictable but in the end it's right
 Em D G 
I hope you had the time of your life.    
 Em G Em G              
Its something unpredictable but in the end it's right
 Em D G 
I hope you had the time of your life.

 G C D G C D G 

flyinglibra51
God Bless Glen Travis Campbell  

Dont Threaten Me With A Good Time solo Tabs – Panic! At The Disco Vsion 2

 -------------------------------------------------------------------------------
               DON'T THREATEN ME WITH A GOOD TIME - Panic! At the Disco
-------------------------------------------------------------------------------
: thanic
 ethanrocketman2
Note:  so it might not be 10/10...
Tuning: Standard

Intro riff. 

e|---------------------------------------------------------------------------|
B|---------------------------------------------------------------------------|
G|----------------------6----------------------------------------------------|
D|--------------7676-6------7----------7676--------------------------7676-6--|
A|-----6-76---------------------76--------------------------6-76-------------|
E|--9--------9-----------------------9-------------------9--------9----------|

Rest of the parts with riff.

e|---------------------------------------------------------------------------|
B|---------------------------------------------------------------------------|
G|---------------------------------------------------------------------------|
D|--------------7676-6--------------7676-----------------------------------------|
A|------7-76--------------6-76-----------------------------------------------|
E|--9--------9---------9---------9------------------------------------------|

The Last Time I Saw Her Face chords – Glen Campbell

 The Last Time I Saw Her Face
Recorded by Glen Campbell
Written by Gordon Lightfoot

Intro   C Cmaj7 C Cmaj7 F Dm F Dm G G7 G G7 C   


Verse 1
     G C Dm F 
The last time   I saw her face
 G G7 G G7 C           
Her eyes were bathed in starlight and her hair hung long
      G C Dm F 
The last time  she spoke to me
 G G7 G G7 C Cmaj7 C Cmaj7 F 
Her lips were like the scented flowers inside a rain-drenched forest


Bridge

 F G7 F C 
But that was so long ago that I can scarcely feel
           Dm F G G7 C 
The way I felt before        and if time could heal the wounds
 Cmaj7 C F C Dm G7     
I would tear the threads away that I might bleed some more 


Verse 2
  
     C Cmaj7 Dm F 
The last time I walked with her
 G7 G F G           
Her laughter was the steeple bells that rang to greet the morning sun
 F G F G7  
A voice that called to everyone to love the ground we walked upon
                C Cmaj7 F G G7 C Cmaj7 
Those were her good days


Verse 3

 C Cmaj7 G F Dm  
The last time        I held her hand
 G G7 C  
Her touch was autumn spring and summer and winter too
     Cmaj7 C F   
The last time    I let go of her
 G G7 F G   
she walked away into the night I lost her in the misty streets
 F G F G  
A thousand months a thousand years when other lips will kiss her eyes
 F G G7 C           
A million miles beyond the moon that's where she is


Verse 4

      Cmaj7 C Cmaj7 F Dm  
The last   time I     saw her face
 G G7 C            
Her eyes were bathed in sadness and she walked alone
                   F  
The last time she kissed my cheek
 G G7 F G            
Her lips were like the wilted leaves upon the autumn covered hills
 F G F G     
Resting on the frozen ground the seeds of love lie cold and still
 F G7 C Cmaj7 F Fm C  
Beneath a battered marking stone it lies forgotten 

flyinglibra51
God Bless Glen Travis Campbell

One Last Time chords – Glen Campbell

 One Last Time
Glen Travis Campbell

Intro   C G C G C 

Verse 1

 G 
One last time let me love you one last time

All I need is one more chance to say goodbye
 C   
One last kiss then I swear I'll let you go 
        G C G 
Baby I need you (one more time) I've got to see you

(One more time) 

Chorus 1

 C G   
One more night stay with me till tomorrow
 C D    
Just tonight let's pretend that tomorrow 
      G C G C 
Will never come    ( Baby I need you)

Verse 2

 G 
One last hour loving you before the end 

I can't face never seeing you again
 C    
One last look in your eyes to know we're through 
        G C G 
Baby I need you (one more time)  I've got to see you

(one more time)

Chorus 2

 C G  
One more night stay with me till tomorrow
 C D  
Just tonight let's pretend that tomorrow 
      G C 
will never come
         G C   
Baby I need you (one last time) 
             G C 
I've got to see you (one last time)

Outro
         G C  
Baby I need you (one last time) 
        G C 
Baby I need you (one last time)
         G C  
Baby I want you (one last time) 
        G C 
Baby I want you (one last time)
         G C   
Baby I want you (one last time) 
         G C 
Baby I want you (one last time)   repeat and fade

 flyinglibra51
God Bless Glen Travis Campbell

33 45 78 Record Time chords – Kathy Mattea

 Kathy Mattea - 33, 45, 78 (Record Time)


## NOTE: ~ = Walk-Down from C to Am ##


CAPO: 3rd Fret



INTRO:  G C G Am C G D G C 
I'm spinning like an old turn table
       G D G 
Three speeds, going nowhere fast
         
I hesitate at the door to the future
 C G D Em 
Holding on to my bitter-sweet past


CHORUS:
        D G Em 
Me and all of the percolators
        D G Em 
Me and all of the rotary phones
        D G  
Me and all of my vinyl records
 C           ~              Am 
Warped and scratched and out of date
 C G D G 
33,45,78


                                          C 
I've got friends from the old home town
            G D G 
We used to work at the home town news

I've got houses in a couple of cities
 C G D Em 
I'm still singing those home town blues


CHORUS:
        D G Em 
Me and all of the drive in movies
        D G Em 
Me and all of the afternoon papers
            D G  
Me and the free-form radio
 C       ~       Am 
Fading in and out of date
 C G D G Em 
33,45,78


BRIDGE:
        D G Em 
I hear talk about a great depression
            D G Em 
I hear the drums of the war machine
          D G  
I wonder if I'm stuck in the past
          Am D 
Or if it all repeats just like a CD


INSTRUMENTAL:  G C G D G C G D Em D G Em D G Em D G C G D G C 
So I'm following the railroad lines
              G D G 
It's another job and another town

I skip around in record time
   C G D Em 
I try not to notice the candle burn down


CHORUS:
        D G Em 
Me and all of the rust belt workers
        D G Em 
Me and all of the hot-type printers
        D G  
Me and all of the family farms
 C          ~        Am 
Auctioned off and out of date
 C G D G Em 
33,45,78


CHORUS:
    D G Em 
Whoa, the percolators
    D G Em 
Whoa, the rotary phones
     D G  
And all of my vinyl records
 C           ~              Am 
Warped and scratched and out of date
             C G D G 
It's like a 33,45,78
   C G D G C G D G 
A 33,45,78

Somebodys Been Beating My Time chords – Eddy Arnold

 G     
Somebody’s been beating my time

 C  
Getting all those hugs and kisses

 G D7 
That I used to get from you


                 G 
Somebody’s been beating my time

 C 
Tell me how he’s going to feel

 G D7 G  
When he finds your love ain’t real and true


 C 
Is your love just like a light

               G 
That you turn off and on

 C 
If it is I’ll have to stay here

 G D7 
In the dark along


                 G     
Somebody’s been beating my time

 C  
Getting all those hugs and kisses

 G D7 
That I used to get from you


                 G 
Somebody’s been beating my time

 C 
Tell me how he’s going to feel

 G D7 G  
When he finds your love ain’t real and true

Angry All The Time intro Tabs – Tim McGraw

 -------------------------------------------------------------------------------
                             Angry all the time- Tim McGraw
-------------------------------------------------------------------------------
:Jébb


Tuning: Standar

e|-----------------------------2-------0------------0--------------------------|
B|---------3/5---5---3/5\3-----2h3-----0----3/5\3---2--------------------------|
G|---------4/6---6---4/6\4-----2-------4----4/6\4---2--------------------------|
D|---------0-----7-------------2h4-----2------------2--------------------------|
A|-----0-----------------------2-------2------------0--------------------------|
E|-0h2---------------------------------0---------------------------------------|

Here's the intro!
Enjoy

************************************

| \   slide up
| /   slide down
| h   hammer-on


************************************

Time Bomb Tabs – Iration Vsion 2

 


Artist: Iration
Song: Timebomb


Intro 3x

e|------------------------------------------------------------------|
B|-----5-X--------8-X--------7-X------------------------------------|
G|-----5-X--------9-X--------7-X------------------------------------|
D|-----5-X--------9-X--------7-X------------------------------------|
A|-3-3--------7-7--------5-5----------------------------------------|
E|------------------------------------------------------------------|

4x

e|------------------------------------------------------------------|
B|-----5-X--------8-X--------7-X-7h8p7------------------------------|
G|-----5-X--------9-X--------7-X-------7-5--------------------------|
D|-----5-X--------9-X--------7-X------------------------------------|
A|-3-3--------7-7--------5-5----------------------------------------|
E|------------------------------------------------------------------|

[1st Verse 7x]

e|------------------------------------------------------------------|
B|-----5--------8--------7--------7---------------------------------|
G|-X-X-5-X--X-X-9-X--X-X-7-X--X-X-7-X-------------------------------|
D|-X-X-5-X--X-X-9-X--X-X-7-X--X-X-7-X-------------------------------|
A|-X-X-3-X--X-X-7-X--X-X-5-X--X-X-5-X-------------------------------|
E|------------------------------------------------------------------|

Last Time

e|------------------------------------------------------------------|
B|-X-X-5-X--X-X-8-X--3--5-------------------------------------------|
G|-X-X-5-X--X-X-9-X--4--5-------------------------------------------|
D|-X-X-5-X--X-X-9-X--4--5-------------------------------------------|
A|-X-X-3-X--X-X-7-X--2--3-------------------------------------------|
E|------------------------------------------------------------------|

[1st Chorus]

e|------3-X-X--3-X-X--7-X-X--7-X-X--3-X-X--3-X-X--7-X-X--7-X-X-----------|
B|-5~---5-X-X--5-X-X--8-X-X--8-X-X--5-X-X--5-X-X--8-X-X--8-X-X--3--5-----|
G|-5~---5-X-X--5-X-X--9-X-X--9-X-X--5-X-X--5-X-X--9-X-X--9-X-X--4--5-----|
D|-5~-----X-X----X-X--9-X-X--9-X-X----X-X----X-X--9-X-X--9-X-X--4--5-----|
A|-3~-----------------7------7--------------------7------7------2--3-----|
E|-----------------------------------------------------------------------|

[2nd Verse 7x]

e|------------------------------------------------------------------|
B|-----5--------8--------7--------7---------------------------------|
G|-X-X-5-X--X-X-9-X--X-X-7-X--X-X-7-X-------------------------------|
D|-X-X-5-X--X-X-9-X--X-X-7-X--X-X-7-X-------------------------------|
A|-X-X-3-X--X-X-7-X--X-X-5-X--X-X-5-X-------------------------------|
E|------------------------------------------------------------------|

Last Time

e|------------------------------------------------------------------|
B|-X-X-5-X--X-X-8-X--3--5-------------------------------------------|
G|-X-X-5-X--X-X-9-X--4--5-------------------------------------------|
D|-X-X-5-X--X-X-9-X--4--5-------------------------------------------|
A|-X-X-3-X--X-X-7-X--2--3-------------------------------------------|
E|------------------------------------------------------------------|

[2nd Chorus]

e|------3-X-X--3-X-X--7-X-X--7------3------3-X-X--7-X-X--7-X-X--------|
B|-5~---5-X-X--5-X-X--8-X-X--8-X-X--5-X-X--5-X-X--8-X-X--8-X-X--------|
G|-5~---5-X-X--5-X-X--9-X-X--9-X-X--5-X-X--5-X-X--9-X-X--9-X-X--------|
D|-5~-----X-X----X-X--9-X-X--9-X-X----X-X----X-X--9-X-X--9-X-X--------|
A|-3~-----------------7------7-X-X----------------7------7------------|
E|--------------------------------------------------------------------|


e|-3-X-X--3-X-X--7-X-X--7-X-X--3-X-X--3-X-X--7-X-X--7-X-X-----------|
B|-5-X-X--5-X-X--8-X-X--8-X-X--5-X-X--5-X-X--8-X-X--8-X-X----3--5---|
G|-5-X-X--5-X-X--9-X-X--9-X-X--5-X-X--5-X-X--9-X-X--9-X-X----4--5---|
D|---X-X----X-X--9-X-X--9-X-X----X-X----X-X--9-X-X--9-X-X----4--5---|
A|---------------7------7--------------------7------7--------2--3---|
E|------------------------------------------------------------------|

[Solo]

e|-10---------------