Tag: tommy

Before I Found The Wine chords – Tommy Cash

 C F 
Yesterday I had a future and I was happy

            G7 C 
I had your love and the whole wide world was mine

                                                F 
I had money to spend and a woman who called me darling

         G7 C 
Yes but that was before I found the wine


 F C 
Before I found the wine my life had meaning

                          D7 G7 
There were happy days at my house all the time

   C F 
I remember when you told me I hung the moon and made your sunshine

         G7 C 
Yes but that was before I found the wine


                                     F 
I wish that I could go back to your world

          G7 C 
Hold you close to me and know that you are mine

                                        F 
And I wish that I could hear you say I love you

          G7 C 
Just the way you did before I found the wine


 F C 
Before I found the wine my life had meaning

                          D7 G7 
There were happy days at my house all the time

   C F 
I remember when you told me I hung the moon and made your sunshine

         G7 C 
Yes but that was before I found the wine


         G7 F C 
Yes but that was before I found the wine

He Knows My Name chords – Tommy Walker V6

 INTRO

 E F#m7 E/G# A E/B Bsus B A 


VERSE I


 E F#m7 E/G# A 
I have a Ma----ker

 E/B B7sus B A/B 
He formed my heart

 E F#m7 E/G# A 
Before even time began

 E/B B       
My life was in his 

 E F#m7 E/G# 
hands.


CHORUS


 A E B E 
He knows my name

 A E B E 
He knows my every thought

 A E B C#m 
He sees each tear that falls and 

 A B E A/E 
hears me when I call


VERSE II


 E F#m7 E/G# A 
I have a Fa----ther

 E/B B7sus B A/B 
He calls me His own

 E F#m7 E/G# A 
He'll never leave me

 E/B B E F#m7 E/G# 
No matter where I go


CHORUS 

 A E B E 
He knows my name

 A E B E 
He knows my every thought

 A E B C#m 
He sees each tear that falls and 

 A B E A/E 
hears me when I call



YouTube:
https://www.youtube.com/channel/UCNEFmIlsMqKfPeImMgatD1A

Ultimate Guitar Profile:
http://profile.ultimate-guitar.com/Maestro_727

Guitar Lessons website:
http://gsguitarfun.weebly.com

George Salas is a public middle school guitar teacher and Praise & Worship leader. He is currently pursuing 
a Master's in Music Education.

Little White Bull chords – Tommy Steele

 From the 1959 film Tommy the Toreador


Verse 1
 C G C 
Once upon a time there was a little white bull
 C G C 
Very sad because he was a little white bull (little white bull)
 F Em Dm C 
All the black bulls called him a coward just 'cos he was white
 F Em D G 
Only black bulls go to the bullring only black bulls fight 
 C G C 
When he asked his mama if a little white bull (little white bull)
 F E Am 
Ever had a chance of turning black
     F C 
His mama said you silly little bull
          G C 
You're a pretty little bull you're my little bull
    F C G C F C G C 
So please don't ask me why little bull you just ain't black 
 
Verse 2 
 C G C 
But this did not satisfy that little white bull (little white bull)
 C G C 
He was an exception to that little white rule (little white rule)
 F Em Dm C 
Everyday alone in the meadow he'd find things to charge
 F Em D7 G 
Till one day he really imagined that his horns were large 
 C G C 
Bold as brass right there and then the little white bull (little white bull)
 F E Am 
Quickly found the nearest road to town
     F C 
And people said what a funny little bull 
        G C 
What a fluffy little bull he's our little bull 
    F C G C F C G C Cm 
He marched along a proud little bull and hit the town
 
Bridge
 Cm G# Cm G# 
It was the day of the bullfight all the town were there
 Cm G# Cm G# 
Waiting to see the famous matador
 Cm G# Cm G# 
Trumpeters sounded a fanfare tam ta da dam tam tara 
 Cm G# G 
Out from the throats of the crowd came a mighty roar 
 Cm Bb G# G 
Into the ring to the shout of a great ole
 Cm Bb G# G 
Came the parade all prepared for a mighty fray 
 G                                                     
Matadors and picadors and toreadors 
 G 
And who do you think as well 

Verse 3 
 C G C 
Trotting right behind them came the little white bull (little white bull)
 C G C 
How they laughed out loud to see the little white bull (little white bull)
 F Em Dm C 
Trotting 'round the giant arena with his head up high
 F Em D G 
Till the matador in the centre caught his tiny eye
 C G C 
Charging right up to him went the little white bull (little white bull)
 F E Am 
Charging twice and charging once again
     F C 
The matador cried toro little bull
        G C 
You're not a little bull you're a brave little bull 
        F C G C 
You're gonna be a great little bull the best in Spain 
          F C 
Then the crowd all shouted toro little bull 
 

The Duke Tabs by Tommy Emmanuel

 The Duke - Tommy Emmanuel

Artist: Tommy Emmanuel
Tab submitted by: Harold Schaefer
Email: schaefeh_19440

I tabbed this by watching Tommy Emmanuel's youtube videos and some covers.

Tab Notes:               
Tuning: Standard
h = hammer on
P = pull off
/ = slide
  = harmonic

Tuning: DADGBE (Drop D)

Verse

e|--10--9--7--7--7--5--2-5-----|--10--9--7--7--7--5-------2-----|
B|---7-----5-----0--0--3----2--|---7-----5-----0--0--3h5--3--2--|
G|------9--7-----7--6--2----2--|------9--7-----7--6-------2--2--|
D|---------5-----5--5--0-------|---------5-----5--5--5----0-----|
A|---------5-----0-------------|---------5-----0----------------|
D|--------------------------4--|-----------------------------4--|


e|--10--9--7--7--7--5-------2--0--|------0h2-2-----2-2p0--------------|
B|---7-----5-----0--0--3/h5-3--0--|--3/5-0--------3------3p0-----0h3--|
G|------9--7-----7--6-------4--1--|------0-------4--------------2-----|
D|---------5-----5--5--5----4--0--|--5---0------5--------------4------|
A|---------5-----0----------2--2--|------------0--------------0-------|
D|-----------------------------2--|------5-------------------0--------|


e|-------------2-2--2-----2h5--|------------0-----0h2-----|
B|---3h5------0-----2--5--2----|--2h3--0-3--3--3--3----2--|
G|o--0-------0------2-----2----|--2----0----2-----2----2--|
D|o---------0-------2-----4----|--2----0----2-----0-------|
A|---------0--------2-----0----|-------0----0-------------|
D|--------5--------------------|-------5---------------4--|

e|------------2-2--2-----2h5--7--|----- <12>--10p7---0--------|
B|--3h5------0-----2--5--2----5--|----<12>-------8------0----|
G|--0-------0------2-----2----7--|---<12>--------------5-6--o| - repeat last
D|---------0-------2-----4----5--|--<12>--------------9-----o|    two lines
A|--------0--------2-----0----5--|------------------0--------|
D|-------5-----------------------|-<12>----------------------|

e|--10--9--7--7--7--5--2-5-----|--10--9--7--7--7--5-------2-----|
B|---7-----5-----0--0--3----2--|---7-----5-----0--0--3h5--3--2--|
G|------9--7-----7--6--2----2--|------9--7-----7--6-------2--2--|
D|---------5-----5--5--0-------|---------5-----5--5--5----0-----|
A|---------5-----0-------------|---------5-----0----------------|
D|--------------------------4--|-----------------------------4--|

e|--10--9--7--7--7--5-------2--0--|------0h2-2-----2-2p0--------------|
B|---7-----5-----0--0--3/h5-3--0--|--3/5-0--------3------3p0-----0h3--|
G|------9--7-----7--6-------4--1--|------0-------4--------------2-----|
D|---------5-----5--5--5----4--0--|--5---0------5--------------4------|
A|---------5-----0----------2--2--|------------0--------------0-------|
D|-----------------------------2--|------5-------------------0--------|


Bridge (finger rolls throughout...not sure if this is 100%)
Each measure is repeated several times before playing the transition note, 
such as the '12' (E note) in the first measure.
 
The string picking pattern is: (I think)
Strings:
1 2 5 4
4

e|---2-/5-/9-10------10-12--|--9-----9-10--|
B|---------------0----------|----0---------|
G|--3----------11-----------|---9----------|
D|------------9----9--------|--7---7-------|
A|--------------------------|--------------|
D|--------------------------|--------------|


e|--7----7--5--5--|--5----5-7--|
B|----0-------0---|----0-------|
G|---7-------7----|---6--------|
D|--5--5----5-----|--4---4-----|
A|----------------|------------|
D|----------------|------------|


e|--5----5--3----3--|--3------3----3--|
B|----0-------0-----|----0------0-----|
G|---5-------5------|---5------4------|
D|--3---3---3---3---|--2---2--2---2---|
A|------------------|-----------------|
D|------------------|-----------------|


e|--7----7-------7--9---9--|
B|----0-------6-------8----|
G|---7-------7-------9-----|
D|--5---5---6---6---7---7--|
A|-------------------------|
D|-------------------------| 

v

Tommy Boyce And Bobby Hart – Alice Long chords

 Alice Long:Boyce And Hart.
#28 on BB Hot 100 on A&M Records 
in 1967.

INTRO:  Db A G D .. A D G F# 

CHORUS:
 G A Am A 
You're still my favorite girlfriend, Alice Long.
 D Am D G Dm A D 
And I don't forget about you when you're gone.
 G A Am A  
Even though right now you feel you don't belong.
 C D C G 
You're still my favorite girlfriend, Alice Long.

#2.
 G D C G 
We both agreed not to get hung up..to talk things over
 D C 
as they come up.
            D Gm F C 
So, if you think we don't see each other enough..then 
 A D 
let's talk it over.

#3.
 D G D C 
When we're together nothing can keep us apart..but if I 
 G C Am A 
ever forget to call, you start..to wonder wheth..er you're
 G D A D 
still a part of my heart..can't you see, can't you see?

CHORUS:
     G A Am 
Oh, you're still my favorite girlfriend, Alice Long.
     D G D A 
But you can't hold on to love by holding on.
 D G A 
When I am with you, girl, or when I'm gone, just remember,
 C D G C 
you're still my favorite girlfriend..Alice, Alice, Alice..
 G C G C G C 
Alice, Alice, Alice..Alice, Alice, Alice..Alice, Alice, Alice..
 G C G C G C 
Alice, Alice, Alice..Alice, Alice, Alice..Alice, Alice, Alice..
 G C G C G C 
Alice, Alice, Alice..Alice, Alice, Alice..Alice, Alice, Alice..
 G C G C D Eb E F 
Alice, Alice, Alice..Alice, Alice, Alice..

#4.
 Bb Cm 
You're still my favorite girlfriend, Alice, love.
 F Bb G C F 
And I don't forget about you When you're gone.
 Bb Cm 
Even though right now you feel you don't belong.
 Eb F Eb F 
You're still my favorite girlfriend..you're still my favorite 
             Eb F Bb 
girlfriend..you're still my favorite girlfriend, Alice Long.


OUTRO:  Cm F Bb Gm C F ..(Fade.)


A sixties smash from Kraziekhat.

He Knows My Name solo Tabs by Tommy Walker

 -------------------------------------------------------------------------------
                             He Knows My Name - Tommy Walker
-------------------------------------------------------------------------------

Solo in the key of C according to http://www.youtube.com/watch?v=NXKWsfbizB4

e|----------------------------------------------10-12-12---10--13-12-10------|
B|-------------------------------------10-12-13--------------13---------13~--|
G|-5-7-9h10-9--5---/9-9--7p5-7~----12----------------------------------------|
D|---------------7~--------------12------------------------------------------|
A|---------------------------------------------------------------------------|
E|---------------------------------------------------------------------------|

e|--------------------------------------------12-13-12p10--------------------|
B|-13--------------------------------------13-------------13~----------------|
G|-14-12h14--------------------------(9)-------------------------------------|
D|----------10-------10-14-14-12-12-10---------------------------------------|
A|--------------10h12---15-15-10-10-10---------------------------------------|
E|---------------------------------------------------------------------------|

************************************

| /   slide up
| \   slide down
| h   hammer-on
| p   pull-off
| ~   vibrato
| +   harmonic
| x   Mute note
| b   Bend
| pb  Pre-bend
| br  Bend release
| pbr Pre-bend release
| brb Bend release bend

************************************

Det Er Saa Svaert At Faa Det Sagt chords – Tommy Seebach

 C G
En smøg der ryger sig selv
          Am Em
På kanten af mit hvide klaver
            F C
Tegner med røg, de toner i luften
 D7 G
  Som jeg komponer'

    C G
Og det sku' bli' en sang
               Am F
Der sag'de de ting jeg aldrig si'r
         C G F Em Dm C
Hvad du betyder, alt hvad du gi'r


                             F
Men det' så svært at få det sagt
 Dm G F C C/B
  Alle de kønne ord får jeg ødelagt
 Am E7 C
  For hvordan sku' jeg ku' tilegne dig
                      F F/E
Ord der klinger lidt smukt
 Dm E7 G
  Dem jeg finder på har alle de andre jo på

 G/A C F
 Det er så svært at få det sagt
 Dm G F C C/B
  Der sad jeg så med alle sanser vakt
 Am E7 C
  Kradsede ned en enkelt besked
                          Am
Og si'r den kort som den var
 F G F Em Dm C
  Du' det dejligste jeg har


 F Em Dm C Bb Am G F C G
Tangenterne for enden af min'
 Am Em
Fingre falder til
          F C
Min melodi til dig den lyder
 D7 G
  Præcis som jeg vil

     C G
Med ord'ne går det knap
              Am F
Så let skønt jeg har prøvet tit
               C
At skrive dig sange
 G F Em Dm C
  Et vers der var dit


                             F
Men det' så svært at få det sagt
 Dm G F C C/B
  Alle de kønne ord får jeg ødelagt
 Am E7 C
  For hvordan sku' jeg ku tilegne dig
                      F F/E
Ord der klinger lidt smukt
 Dm E7 G G/A C
  Dem jeg finder på, har alle de andre jo på

                         F
Det' så svært at få det sagt
 Dm G F C C/B
  Der sad jeg så med alle sanser vakt
 Am E7 C
  Kradsede ned en enkelt besked
                           Am
Og si'r den kort som den var;
 F G F Em Dm C
  Du' det dejligste jeg har

Outro:
( C )
 F Em Dm G A

To B Or Not To B Tabs by Tommy Emmanuel

 To 'B' or not to 'B' - Chet Atkins
Performed by Tommy Emmanuel

Artist: Tommy Emmanuel
Tab submitted by: Harold Schaefer
Email: schaefeh_19440

I tabbed this by watching Tommy Emmanuel's youtube lesson. 
See link: http://www.youtube.com/watch?v=vlaNXg5ZH-s

Chord notations are not exact. They should be used for basic reference only.

Tab Notes:      
Tuning: Standard   
h = hammer on      
P = pull off     
/ = slide 
  = harmonic

Intro:

   B                     G7                 
|----------------0----|-----------------0----|
|------0---0---0---0--|-------0---0---0---0--|
|---------------------|----------------------|
|----4---4---4--------|-----3---3---3--------|
|--2----2---2---------|----2---2---2---------|
|---------------------|--3-------------------|

  F#sus4   F#           F#sus4   F#
|----------------0---|----------------0---|
|-----0--0--------0--|-----0---0----------|
|----------3---------|-----------3--------|
|----4--4-----4------|----4--4------4-----|
|---4--------4-------|---4---------4------|
|--2-----------------|--2-----------------|

Verse 1:

  B      BM7      B7               EM7/6      A7
|------------0-----------0-------|--------0---------0-------|
|------4----4--4-------4---4--0--|------4---4------4--4--0--|
|------4---3---------6------6----|------6---------6----6----|
|----4----4--------7-------------|----6----------5----------|
|--2-----2-----------------------|-------------0------------|
|-----------------7--------------|--0-----------------------|

  B      BM7      B7               B?      F#sus4  F#7
|------------0-----------0-------|-------2-------------2---|
|------4----4--4-------4---4--0--|------2-------2--------2-|
|------4---3---------6------6----|-----4------4---4--3---3-|
|----4----4--------7-------------|----5--------------------|
|--2-----2-----------------------|--2---------2------2-----|
|-----------------7--------------|-------------------------|


  B      BM7      B7               EM7/6      A7
|------------0-----------0-------|--------0--------0-------|
|------4----4--4-------4---4--0--|------4---7-----4--4--0--|
|------4---3---------6------6----|------6--------6----6----|
|----4----4--------7-------------|----6---------5----------|
|--2-----2-----------------------|------------0------------|
|-----------------7--------------|--0----------------------|

  C#9        F#7             B          G7   F#7
|-------0-----2-----------|------------------------|
|-----4---4-----2h4-p2----|------0-0-0--0-0--------|
|-----4-------3--------4--|-----4-------4-------3--|
|---3--------2--2---------|----4--------3------2---|
|--4----------------------|--2----------2-----1----|
|-------------------------|------------3-----2-----|

Verse 2:

  B      BM7      B7               EM7/6      A7
|------------0-----------0-------|--------0---------0-------|
|------4----4--4-------4---4--0--|------4---4------4--4--0--|
|------4---3---------6------6----|------6---------6----6----|
|----4----4--------7-------------|----6----------5----------|
|--2-----2-----------------------|-------------0------------|
|-----------------7--------------|--0-----------------------|


  B      BM7      B7               B?      F#sus4  F#7
|------------0-----------0-------|-------2-------------2---|
|------4----4--4-------4---4--0--|------2-------2--------2-|
|------4---3---------6------6----|-----4------4---4--3---3-|
|----4----4--------7-------------|----5--------------------|
|--2-----2-----------------------|--2---------2------2-----|
|-----------------7--------------|-------------------------|


  B      BM7      B7               E              A6 
|------------0-----------0-------|-----4-6-7-6-4-------0--|
|------4----4--4-------4---4--0--|-----5------------7-----|
|------4---3---------6------6----|-----4-----------6------|
|----4----4--------7-------------|---6------------5-------|
|--2-----2-------------

Julen Ar Har chords – Tommy Krberg

 G  -  D  -  Em  -  Am  -  D  x2      

 G D 
Stjärnorna faller i natten nu
          Em Am D 
himlarna sänker sig ner över jorden
          G D 
Och när stjärnans bloss tänder sitt ljus hos oss
            Em Am D    
brinner en låga klar i hela Norden

 G C 
Julen är här
 Am D 
och lyser frid på jorden
 Bm Em 
Glädjen är stor
       Am D 
i ett barns klara ögon bor den
 G C 
Julen är här
 Am D 
i våra mörka länder
 Bm Em 
Kom, låt oss ta varandras händer
     C D G 
när julen är här

Och jag vill tända en stjärna till 
den som har frusit och gått vill i världen
För den som inte finns hos oss
tänder vi nu ett bloss
brinner en låga klar
Kom hit, här är den

Julen är här
och lyser frid på jorden
Glädjen är stor
i ett barns klara ögon bor den
Julen är här
i våra mörka länder
Kom, låt oss ta varandras händer
när julen är här

Ge oss av den frid som rår
i stjärnornas förunderliga hem
Led oss på den väg vi går
så att vi hittar hem till dem

Julen är här
och lyser frid på jorden
Glädjen är stor
i ett barns klara ögon bor den
Julen är här
i våra mörka länder
Kom, låt oss ta varandras händer
när julen är här

He Knows My Name chords – Tommy Walker V5

  beachynk


He Knows My Name
Tommy Walker

VERSE 1
 D Em D/F# G 
I have a maker
 D G Asus/A 
He formed my heart
 D Em D/F# G 
Before even time began
     D A D 
My life was in his hands


CHORUS
 G D/F# A C# D 
He knows my name
 G D/F# A D 
He knows my every thought
 G D A Bm  
He sees each tear that falls
        G A D         (Into bridge)  D Em D /F#  G Asus A 
And he hears me when I call


VERSE 2
 D Em D/F# G 
I have a father
 D G Asus/A 
He calls me his own
 D Em D/F# G 
He will never leave me
     D A D 
No matter where I go

CHORUS



BRIDGE
 G 
He knows me
 D/F# 
He loves me
 Em 
He wants me
 Asus/A 
He hears me when I call

 G 
He formed me
 D/F# 
He sees me
 Em 
Never leaves me
 Asus/A 
He hears me when I call

CHORUS

BRIDGE

CHORUS

Break Through chords – Tommy Walker

 Intro: 
 C G/C C G/C F G/F F G/F  
 

Verse: 
              C G/C  
Break through, 
              C G/C  
break through all my doubts 
               F G/F  
Break through, 
              F G/F  
break through all my fears 
               Dm7 C/D  
Break through 
      Am/G G Csus C G Gsus  
That I may worship You 
              C G/C  
Break through, 
              C G/C  
break through all my pain 
               F G/F  
Break through, 
        F G/F  
all my guilt and my shame 
               Dm7  
Break through, 
        Gsus G Csus C G/C C  
like only  You can do 
              G F C  
You are brighter than my darkest night, 
      G F C  
Stronger than my toughest fight 
               G F C  
Just one touch from You, my King,  my Friend 
          C/D Dm C/D G7sus G  
And I'll nev - er be the same again 

Nuna Imagine solo Tabs by Tommy Torres

 |------------------------------|------------------------------|
|--------------------10-10-----|------------------------------|
|--12b---10b---9b~~------------|-------------12--11b----------|
|------------------------------|-------9-12-------------------|
|------------------------------|---10----------------(14)--12-|
|------------------------------|------------------------------|

|------------------------------|------------------------------|
|-------------------12-13-15b~-|---14p12--12h14--12h14--------|
|----12-14-16-16b~~------------|------------------------------|
|-12---------------------------|------------------------------|
|------------------------------|------------------------------|
|------------------------------|------------------------------|

|----------------12h15b--12----|------------------------------|
|---------12h14----------------|--14-12-12h14p12--------------|
|-/12-14-----------------------|------------------14~---------|
|------------------------------|------------------------------|
|------------------------------|------------------------------|
|------------------------------|------------------------------|

|------------------------------|------------------------------|
|----------------12-15-15b~~---|------------------------------|
|------------/14---------------|------------------------------|
|------9-12--------------------|------------------------------|
|--10--------------------------|------------------------------|
|------------------------------|------------------------------|

He Knows My Name chords – Tommy Walker V4

 INTRO
 F Bb/F 

VERSE
 F Gm7 F/A Bb F/C Bb/D F/C C7sus C7 
I have a maker,      He formed     my heart
 F Gm7 F/A Bb F/C C7sus F Cm7 F 
Before even time began my life was in   His hands

CHORUS
 Bb F C7sus Eb/F F7/A 
He knows my name
 Bb F C F 
He knows my every thought
 Bb F C Dm7 Bb C C7sus F C/F Bb /F
He sees each tear that falls and hears me when I call

VERSE
 F Gm7 F/A Bb F/C Bb/D F/C C7sus C7 
I have a Father,      He calls    me His own
 F Gm7 F/A Bb F/C C7sus F Cm7 F 
He'll never   leave me  no matter where   I go

CHORUS
 Bb F C Fsus F F7/A 
He knows your name
 Bb F Csus C Cm7 F7 
He knows your ev-    'ry thought
 Bb F C      C#dim7      Dm7 
He sees all those tears that      fall
            Bb Csus C Fsus F 
And He'll hear you when   you call