Tag: tshirt

Sleeping In My T-Shirt chords – Zak Waters

 --------------------------------------------
    Sleeping In My T-Shirt - Zak Waters
--------------------------------------------

: Eric H. 
Email: dukedevilseh@aim.com

Tuning: Standard

Artist: Zak Waters
 Now // Later EP
Year: 2014

 ever! Feel free to email me with questions,
comments or edits.

The chords are barred to give the song a lighter feel.
     A F#m Bm E 
e|--xx--|   e|--9---|   e|--2--|   e|--7--|
B|--14--|   B|--10--|   B|--3--|   B|--9--|
G|--14--|   G|--11--|   G|--4--|   G|--9--|
D|--14--|   D|--11--|   D|--4--|   D|--9--|
A|--12--|   A|--9---|   A|--2--|   A|--7--|
E|--xx--|   E|--xx--|   E|--x--|   E|--x--|

     D Dm Dbm 
e|--5--|   e|--5--|   e|--4--|
B|--7--|   B|--6--|   B|--5--|
G|--7--|   G|--7--|   G|--6--|
D|--7--|   D|--7--|   D|--6--|
A|--5--|   A|--5--|   A|--4--|
E|--x--|   E|--x--|   E|--x--|

Verse:

           A 
I see you lying there
                F#m 
Swimming in my pillows
                   Bm 
I'm walking on my tiptoes
                       E 
Sun coming through my window
                 A 
You were just a booty call
                 F#m 
Now you look so beautiful
              Bm 
Morning came I suppose
                        E 
Sometimes its just the way it goes

 D 
Your silhouette framed by the bed post
 E 
One look and i'm done for
 Bm E 
Standing starry I am speechless


Chorus:

                           D 
I love you sleeping in my t-shirt
                             Dbm 
Wearing my heart up on your sleeve girl
                    Bm 
Try my best not to wake you
                        E 
You look so good in my bedroom

                  D 
6 o'clock in the morning
                        Dbm 
Fell in love without a warning
                   Bm 
I wanna make this forever
                   E 
So everyday i can see ya
                A F#m 
Sleeping in my t-shirt


Verse:

                 A 
Forgot about my hangover
                 F#m 
Standing in the doorway
                    Bm 
No i can't seem to stop myself
                   E 
From looking over your way
                 A 
You were not supposed to stay
             F#m 
Happy under your spell
                                  Bm 
And now you're wrapped under my blankets
                  E 
Sleeping like an angel

 D 
Your silhouette framed by the bed post
 E 
One look and i'm done for
 Bm E 
Standing starry I am speechless


Chorus:

                           D 
I love you sleeping in my t-shirt
                             Dbm 
Wearing my heart up on your sleeve girl
                    Bm 
Try my best not to wake you
                        E 
You look so good in my bedroom

                  D 
6 o'clock in the morning
                        Dbm 
Fell in love without a warning
                   Bm 
I wanna make this forever
                   E 
So everyday i can see ya
                A F#m 
Sleeping in my t-shirt


Bridge:

 Dbm F#m 
I, I wanna be,
            Bm E 
I wanna be waking up, waking up next to you

 Dbm F#m 
Girl, you better be
               Bm D Dm A 
You better be waking up, waking up in my t-shirt
 F#m Bm E 
Eh, yeah


Chorus:
       

I Min T-shirt chords – Rasmus Seebach

 Rasmus Seebach
I Min T-shirt
 Ingen Kan Love Dig I Morgen
Released: 04.11.13

: Mikkel Sølling

Capo 1 fret
Or step it ½ tone up to play with the CD



Verse:
               Em Am 
Du går altid ud, med maling på din hud
               D/F# G 
I sidste nye skrud, og stiletter
                Em Am 
Hele verden ser, hvor yndig du kan være
                D C        / B    / A G 
...Du er billedskøn - men det er ikke der du er min
     
               Em Am 
Misforstå mig ikke, jeg ser jo deres blikke
               D/F# G               / F#  
Jeg ville også tigge, om et smil fra dig
               Em Am 
 Og ja du skinner næsten, du ligner jo prinsessen
                D C        / B    / A G 
...I et eventyr - men det er ikke der du er min


Pre-Chorus:
               C D 
Tænk at du tror, tror du skal ændre noget 
            G     / F# Em 
For at du bliver perfekt.
              Am D 
Forstå nu du fejlfri, som du ligger der
       C  / B   / A G 
I min T-shirt.


Chorus: 
            Cmaj7 B7 Em Am7 
Så lad den sorte kjole falde, og lad mig få dig for mig selv.
            C D G 
For det er jo hende indenunder jeg elsker, alligevel.
            Cmaj7 B7 Em Am7 
Først når hele verden forsvinder, og vi når ind til dig og mig
            C D                 
Der ser jeg hende indenunder jeg elsker,
         C  / B   / A G 
I min T-shirt.

Verse:
               Em Am 
Igen der venter jeg på dig,  siger vi burde være på vej
               D/F# G               / F#  
100 år foran dit spejl, det er jo sindsygt
               Em Am 
Ja drengene besvimer, mens jeg tæller timer
                D C        / B    / A G 
Til vi er hjemme igen – Det er jo her jeg ved du er min...


Pre-Chorus
             C D 
Tænk at du tror, tror du skal ændre noget 
            G     / F# Em 
For at du bliver perfekt.
              Am D 
Forstå nu du fejlfri, som du lå i nat
       C  / B   / A G 
I min T-shirt.


Chorus:
            Cmaj7 B7 Em Am7 
Så lad den sorte kjole falde, og lad mig få dig for mig selv.
            C D G 
For det er jo hende indenunder jeg elsker, alligevel.
            Cmaj7 B7 Em Am7 
Først når hele verden forsvinder, og vi når ind til dig og mig
            C D                 
Der ser jeg hende indenunder jeg elsker,
         C  / B   / A G 
I min T-shirt.


 C  -Section:
               Am             
Jeg ved det er ligegyldigt hvorhen vi lige tager
               Em 
For jeg kan se, hele verden herfra
                Am                   
Så glem alle dine fine fester, 
                Em D/F# Cadd9 
Og bliv her i min seng, i min seng , i nat...


Chor

Some Dispute Over T-shirt Sales Tabs by Butthole Surfers

 SOME DISPUTE OVER T-SHIRT SALES

by the butthole surfers

 chris lawrence (mustang@islandnet.com)

Intro:

E----------------------------------------------------------14b-14b-14br^12\10-|
B-----------------------------------------------------------------------------|
G----------------12-12---------12-12---------12b(12)12r-10--------------------|
D--12-12-X-X-X-X-12-12-X-X-X-X-12-12-X-X-X-X----------------------------------|
A--12-12-X-X-X-X-10-10-X-X-X-X-10-10-X-X-X-X----------------------------------|
E--10-10-X-X-X-X-------X-X-X-X-------X-X-X-X----------------------------------|

Repeat simile.

Verse:

E--------------------------------------------------------------|
B--------------------------------------------------------------|
G--------------------------------------------------------------|
D--12-12-X-X-X-X-12-12-X-X-X-X-12-12-X-X-X-X-12-X-X-X-X-X-X-X--|
A--12-12-X-X-X-X-12-12-X-X-X-X-12-12-X-X-X-X-12-X-X-X-X-X-X-X--|
E--10-10-X-X-X-X-10-10-X-X-X-X-10-10-X-X-X-X-10-X-X-X-X-X-X-X--|

End of verse:

E------------|
B------------|
G------------|
D--8-8-8-8-7-|
A--8-8-8-8-7-|
E--6-6-6-6-5-|

Play intro riff again, back into verse...
Play intro riff again, back into verse...

this time at the end of the verse, play:

E----------------------------------|
B----------------------------------|
G----------------------------------| ETC
D--8-8-8-8-7-7-X-X-X-X-7-7-X-X-X-X-|
A--8-8-8-8-7-7-X-X-X-X-7-7-X-X-X-X-|
E--6-6-6-6-5-5-X-X-X-X-5-5-X-X-X-X-|

SOLO:

E------------------------------------------------------------|
B------------------------------------------------------------|
G---------14-12----------------------------------------------|
D--14b~~--------14-12----12----14b~-------------------12b~~--|
A---------------------15----15------15-12----12-15-12--------|
E-----------------------------------------15-----------------|

E-------------------------------------------------------------------------|
B-------------------------------------------------------------------------|
G---------------------------------------13-11-----------------------------|
D-----------12----13br-12----12---------------13-11----------------9----9-|
A--12----12----15---------15----15-12~~-------------13b-11-9-10-11---11---|
E-----15------------------------------------------------------------------|

E------------------------------------------------------------------------|
B------------------------------------------------------------------------|
G------------11-----11-------12-10---------------------------------------|
D--11-9-11b-----11b----11r\--------12-10---------------8----8-12-10-8----|
A----------------------------------------12b-10-8-9-10---10-----------10-|
E------------------------------------------------------------------------|

E---------------------------------------------|
B---------------------------------------------|
G--11-9----------------10-8-------------------|
D-------11-9----------------10-8-----------9--|
A------------11b-9-8-9-----------10b-8-7-8-7--|
E------------------------------------------0--|

Repeat intro, end on:

E----------|
B----------|
G----------|
D--12-12\--|
A--12-12\--|
E--10-10\--|

-------------------------------------------------
THE BUTTHOLE SURFERS GUITAR/BASS TAB ARCHIVE:
http://www.islandnet.com/~mustang/1401/index.html
-------------------------------------------------