Tag: universe

Steven Universe – Peace And Love On Planet Earth Tabs – Misc Cartoons

 -------------------------------------------------------------------------------
                             Peace & Love (On Planet Earth) - Steven Universe
-------------------------------------------------------------------------------

Provided lyrics are a rough guide.

Tuning: Standard

    Life...       love...         peace...        planet earth
e|8-----8---------7-----7---------7-----7---------5-----5---------|
B|8---------8-----8---------8-----5---------5-----5---------5-----|
G|9-----------9---9-----------9---5-----------9---5-----------5---|
D|----------------------------------------------------------------|
A|----------------------------------------------------------------|
E|----------------------------------------------------------------|

    Is there   anything...        Peace...        planet earth?
e|8-----8---------7-----7---------7-----7---------5-----5---------|
B|8---------8-----8---------8-----5---------5-----5---------5-----|
G|9-----------9---9-----------9---5-----------9---5-----------5---|
D|----------------------------------------------------------------|
A|----------------------------------------------------------------|
E|----------------------------------------------------------------|

    Come on...    Me,               the words...  key,
e|8-----8---------7---------------7-----7---------5---------------|
B|8---------8-----8---------------5---------5-----5---------------|
G|9-----------9---9---------------5-----------9---5---------------|
D|----------------------------------------------------------------|
A|----------------------------------------------------------------|
E|----------------------------------------------------------------|

    If...           if...           then...       me,
e|8-----8---------7-----7---------7-----7---------5---------------|
B|8---------8-----8---------8-----5---------5-----5---------------|
G|9-----------9---9-----------9---5-----------9---5---------------|
D|----------------------------------------------------------------|
A|----------------------------------------------------------------|
E|----------------------------------------------------------------|

    Life...       love...           Life...       love...  But using
e|8-----8---------7---------------7-----7---------5---------------|
B|8---------8-----8---------------5---------5-----5---------------|
G|9-----------9---9---------------5-----------9---5---------------|
D|----------------------------------------------------------------|
A|----------------------------------------------------------------|
E|----------------------------------------------------------------|

  mi fa mi mi fa  mi ti la    and peace...        planet earth,
e|8-----8---------7-----7---------7-----7---------5-----5---------|
B|8---------8-----8---------8-----5---------5-----5---------5-----|
G|9-----------9---9-----------9---5-----------9---5-----------5---|
D|----------------------------------------------------------------|
A|----------------------------------------------------------------|
E|----------------------------------------------------------------|
    Yes, yes, that's it...
e|8-----8---------7---------------7-----7---------5---------------|
B|8---------8-----8---------------5---------5-----5---------------|
G|9-----------9---9---------------5-----------9---5---------------|
D|----------------------------------------------------------------|
A|----------------------------------------------------------------|
E|----------------------------------------------------------------|

  You should write...                                   ...already
e|8-----8---------7-----7---------7-----7---------5-----5---------|
B|8---------8-----8---------8-----5---------5-----5---------5-----|
G|9-----------9---9-----------9---5-----------9---5-----------5---|
D|----------------------------------------------------------------|
A|----------------------------------------------------------------|
E|--------------------------------

Steven Universe Theme Tabs – Rebecca Sugar

 -------------------------------------------------------------------------------
                             SONG NAME - Band Name
-------------------------------------------------------------------------------
:


Tuning:

e|---------------------------------------------------------------------------|
B|----0-----------0-----------0-----------0-----------0----------------------|
G|------2-0-2-------2-0-2-------2-0-2-0-----2-0-2-0-----2-0-2-0--------------|
D|--0---------2-0---------0-0-----------2-----------2-----------2-0-2-2-0----|
A|---------------------------------------------------------------------------|
E|---------------------------------------------------------------------------|

e|---------------------------------------------------------------------------|
B|--0-----------0------------------------------------------------------------|
G|----2-0-2-0-----2-2-0------------------------------------------------------|
D|------------2--------------------------------------------------------------|
A|---------------------------------------------------------------------------|
E|---------------------------------------------------------------------------|


************************************

| /   slide up
| \   slide down
| h   hammer-on
| p   pull-off
| ~   vibrato
| +   harmonic
| x   Mute note
| b   Bend

************************************

Universe chords – Spzrkt

 [Verse 1]

 Em G D 
There is nothing like You

 Em G D 
There is nothing like You
My God

 Em G D 
Sing it from the highest mountain

 Em G D 
Sing it from the mountain

[Hook]x2
And

 Em G D 
Your love, Your love, Your love

 A    
Is everything and

 Em G D 
You are, You are, You are

 A 
You're all I need

[Chorus]x2

                Em G A Em G D 
Singing hallelujah, hallelujah

Jesus

 Em D A 
You mean the universe to me

 Em D A 
You mean the universe to me

(You mean it all, You mean it all to me)

[Verse 2]

 Em G D 
There is nothing like You

 Em G D 
There is nothing like You

 Em G D 
I am longing for Your presence

 Em G D 
I long for Your presence

[Hook]x2
And

 Em G D 
Your love, Your love, Your love

 A 
Is everything and

 Em G D 
You are, You are, You are

 A 
You're all I need

[Chorus]x2

                Em G A Em G D 
Singing hallelujah, hallelujah

Jesus

 Em D A 
You mean the universe to me

 Em D A 
You mean the universe to me

(You mean it all, You mean it all to me)

 Em Em A 
Oh ooh ooh 6x

Lonely Universe chords – Angel Olsen

 Lonely Universe

intro

 C E Am  x2

verse

 C E 
Your hands were cold

               Am 
Your voice was shaky

 C E Am 
One morning not too long ago

 C E Am 
And at the time I was only a child

 C E Am 
About to lose my childlike mind

             D 
The way you touched my hands

         C G Am 
Like you never had before

              G Am G 
It wasn't you anymore  


verse

 C E 
I called for my brothers

                Am 
I called for my sisters

 C E Am 
But there was nothing left for them to do

         D 
And so I watched from far away

        C G Am 
As the ambulances came

                         G Am G 
And started dressing for school  



chorus

 C G Dm Am G 
Good bye sweet mother earth

 C G Dm Am G 
With out you now I'm a Lonely Universe

          D 
You won't always understand

            C G Am 
When you’ve truly loved someone

                    G Am G 
Until after they’ve gone  

verse


 C E Am 
This time of year the nights fall longer

 C E Am 
So grow a spine or catch cold

 C E Am 
The winter months they do make you feel stronger

 C E Am 
But in the end it's all getting old

              D C G Am 
And you won't always be walking the safest streets

                          G Am G 
But you can find your way home  

verse


 C G Dm Am G 
If you have imagined your way back

 C G Dm Am G 
Then my dear you’re more than halfway there

              D 
And you might only possess

            C G Am 
What you've carried on your back

                        G 
But you've always been free

         Am G 
Now it's time to believe

verse


 C G Dm Am G 
Time to give up that unforgiving act of altogetherness

       C G Dm Am G 
And start living out your oldest childhood dreams

       C G Dm Am G 
Well, losing your minds it ain’t half as bad as it seems

           D 
And if you would take the risk

         C G Am 
Well, it might be worth your time

                G 
It's only your life

     Am G 
It's only going by

chorus


 C G Dm Am G 
Goodbye sweet mother earth

 C G Dm Am G 
Without you now I'm a Lonely Universe

          D 
You won’t always understand

            C G Am 
When you’ve truly loved some one

                   G Am G 
Until after they’ve gone   

Island Universe chords – Feeding People

 Intro:  G ,  Em ,  C ,  D G 
Island universe, babe you'd never get hurt 
 Em 
Something I could weave
 Em C D 
Where we could leave, forever, forever,
 G 
I can read your mind, the secret's not hard to find
 Em 
Like the stars appear, perfectly aligned
 C D 
Forever, forever,
CG
Young and naïve,
 A Em 
Can we just make believe?
 C Em 
Die in our sleep,
 A Em 
Can we just make believe?

Island universe, baby you'll never get hurt
Something I could with
Where we could live, forever, forever,
I can read your mind, the secret's not hard to find
Like the stars appear, perfectly aligned
Forever, forever,
Young and naïve,
Can we just make believe?
Die in our sleep,
Can we just make believe?

Island universe, baby you'll never get hurt
Something I could with
Where we could live, forever, forever,
I can read your mind, the secret's not hard to find
Like the stars appear, perfectly aligned
Forever, forever,
Forever, forever,
Forever, forever.

Steven Universe Theme chords – Rebecca Sugar

 G 
We
                 B7 
Are the Crystal Gems
                       C 
We'll always save the day
                     Cm 
And if you think we can't, we'll
               G 
Always find a way.
                       B7 C 
That's why the people of this world believe in
               Cm G 
Garnet, Amethyst, and Pearl... AND STEVEN!



So, it's a pretty straightforward little song. Figured most of it out on my own 
pretty easily, then read Rebecca Sugar's Tumblr and learned that the Bmajor was actually a  B7 .

Not quite as easy as the Adventure Time theme, but pretty simple.

Slip Off The Edge Of The Universe Tabs by Sahg

 Tab by Sylvain (hailtojackdaniels / comments and questions welcome)

This is how I play the song. It sounds quite similar to the album but I don't guarantee 
that the band plays it that way.

I haven't included the solo for now. Have fun playing this great song from a great album 
by a great band.

 Sahg
song: Slip Off the Edge of the Universe
 Delusions of Grandeur (2013)
tuning: drop D

I. intro: 6 chords (play 3 times each, listen to the album for the rythm)

e --3--3--------3--3--3-|
B --3--3--3-----3--3--4-|
G --5--3--3-----5--4--3-|
D --5--5--5-----5--5--5-|
A -(3)-3-------(3)-3--6-|
D -----5-----------5----|

The last one can be played like this:

e -6-
B -6-
G -8-
D -8-
A -6-
D ---

note: the sung part is played like this too

=============================================

II. Interlude after the intro, play:

1

e ---------------------------------|
B ---------------------------------|
G ---------------------------------|
D -0-0-x-x-8-8-x-x-7-7-x-x-6-6-x-x-|
A -0-0-x-x-7-7-x-x-8-8-x-x-7-7-x-x-|
D -0-0-x-x-----x-x-----x-x-----x-x-|

2

e -----------------------------------|
B -----------------------------------|
G -----------------------------------|
D -0-0-x-x-8-8-x-x-7-7-x-x-11-11-x-x-|
A -0-0-x-x-7-7-x-x-8-8-x-x-12-12-x-x-|
D -0-0-x-x-----x-x-----x-x-------x-x-|

3

e -3-6---------|
B -3-6---------|
G -5-8---------|
D -5-8---------|
A -3-6---------|
D -------------|

Play 1 2 1 3 / 1 2 1, then move to III

==============================================

III. Sung part ("Master of Astropolis, Verging on the black abyss...")

See "I. intro": same chords and rythm

==============================================

IV. Chorus ("Circle the night, devious satellite...")

e -------------------------------------------------|
B -------------------------------------------------|
G -------------------------------------------------|
D -------------------------------------------------|
A ---------5---------5-3-0---------3---------3-1-0-|
D -0-0-0-0---0-0-0-0-------1-1-1-1---1-1-1-1-------|

Sounds nice to slide the notes on the A string (up or down).
You can also play this only on the low D string for badass slides.

D -0-0-0-0-12----0-0-0-0-12-10-7----1-1-1-1-10----1-1-1-1-10-8-7--

e ---------|
B ---------|
G ---------|
D -1-3-5-8-|
A -1-3-5-8-|
D -1-3-5-8-|

(play chorus again)

==============================================

V. Rythmic guitar while solo

You don't really need to learn the three patterns because the changes are very small.
For 100% accuracy, check the album.

e -------------------------|
B -------------------------|
G -------------------------|
D -------------------------|
A -------2---0h2p0-0-------|
D -0---3---3---------3-2-0-|

e -------------------------|
B -------------------------|
G -------------------------|
D -------------------------|
A -------2---2h3p2h0-------|
D -0---3---3---------3-2-0-|

e -------------------------|
B -------------------------|
G -------------------------|
D -------------------------|
A -----3p2---0h2p0-0-------|
D -0-------3---------3-2-0-|

e -----------|
B -----------|
G -----------|
D -3-5-7-10--|
A -3-5-7-10--|
D -3-5-7-10--|

Controlling The Universe Tabs by Washya

 -----------------------------------------------------------------------------
                     Controlling The Universe - Washya
-----------------------------------------------------------------------------
Tuning: Drop D (EBGDAD)
Intro
E|-----------------------------------------|
B|-----------------------------------------|
G|-----------------------------------------|
D|-----------------------------------------|
A|------6------6\5---1------6------5-1-3\\-|
D|-0000-6-0000-6\5-0-1-0000-6-0000-5-1-3\\-|
PM ****   ****     *   ****   **** 

Verses
E|---------------------------------------------------|
B|---------------------------------------------------|
G|---------------------------------------------------|
D|------------------------2----------------7\6-----2-|
A|------5-----6---3---------3------3/5-8/7-5\4-2h4-0-|
D|-0000---000---0---0-3h5-----5/6--3/5-8/7-----2h4---|
PM ****   ***   *   *  

Chorus
E|--------------------------------------------------------------------------|
B|--------------------------------------------------------------------------|
G|--------------------------------------------------------------------------|
D|--------------------------------------------------------------------------|
A|------35-35-35-35------35-35------6------3------6-5------35-35-35-35------|
D|-0000-35-35-35-35-0000-35-35-0000-6-0000-3-0000-6-5-0000-35-35-35-35-0000-|
PM ****             ****       ****   ****   ****     ****             **** 

E|-------------------|
B|-------------------|
G|-------------------|
D|-------------------|
A|-35-35----1~//12\\-|
D|-35-35-00-1~//12\\-|