Tag: v8

Shake It Off chords – Taylor Swift V8

 
Shake it Off  ♫♪♪ Taylor Swift   ////=4 strums /= #of strums
G //// //// //// //                                 ()= no chord           
                Am C 
I stay out too late     got nothing in my brain
                    G 
That's what people say   hm hmm that’s what people say  hm hmm
                    Am C 
I go on too many dates    but I can't make them stay
                             G Am G Am G 
At least that's what people say hm hmm   that’s what people say  hm hmm
----------
            Am C 
But I keep cruisin     can't stop won't stop moving 
                      G Am G 
It's like I got this music    in my mind saying it's gonna be alright
----------
           Am 
Cause the players gonna   play   play   play   play
         C 
And the haters gonna  hate  hate   hate   hate   hate baby
     G Am G 
I'm just gonna shake  shake   shake    shake   shake

Shake it off  I shake it off
       Am 
Heart breakers gonna break  break  break  break  break
         C 
And the fakers gonna  fake  fake  fake  fake  fake baby
 G Am 
I'm just gonna  shake  shake  shake  shake  shake

Shake it off    I shake it off
----------
               Am/                            C/
I never miss a beat    I'm lightening on my feet
                            G Am G Am G 
  And that's what they don’t see hm hmm   that's what they don’t' see hm hmm
                   Am C 
I'm dancing on my own    I'll make the moves up as I go    
                            G Am G Am G 
And that's what they don't know hm hmm   that's what they don't know hm hmm
----------

             Am C 
But I keep cruising     can't stop won't stop groovin
                      G Am G                                               
It's like I got this music    in my mind saying it's gonna be alright

           Am 
Cause the players gonna  play  play  play  play  play
         C 
And the haters gonna hate  hate  hate  hate  hate baby
 G               
I'm just gonna  shake  shake  shake  shake  shake
 Am G Am G 
Shake it off   I shake it off

     



       Am 
Heart breakers gonna  break  break  break  break  break
         C 
And the fakers gonna  fake  fake  fake  fake  fake  baby
 G 
I'm just gonna  shake  shake  shake  shake  shake
   Am G Am G 
I shake it off   I shake it off 
 Am C  
Shake it off  I shake it off  I I I shake it off  I shake it off  
        G Am 
I I I shake it off   I shake it off   I I I shake it off  I shake it off
----------
(tap guitar to the beat)
Hey! Hey! Hey! just think 
While you been getting down and out
About the liars and dirty dirty cheats of the world
You could a been getting down to this sick beat
----------
Am/                   C/                   G/
My ex-man brought his new girlfriend she’s like "Oh my God"!

I 'm just gonna shake it
       Am/                       C/
To the fella over there with the hella good hair
          G/                          
Won't you come on over baby we can  (shake  shake  shake)
----------

           Am 
Cause the players gonna play  play  play  play  play
         C 
And the haters gonna  hate  hate  hate  hate  hate baby
 G Am G 
I'm just gonna shake  sha

Moon River chords – Audrey Hepburn V8

 Moon River ♫♪Audrey Hepburn♪♫ Written by Henry Mancini


 G Em C G  
Moon River   wider than a mile 

     C G Am B7  
I'm crossing you in style some day 

     Em G7 C Cm  
Oh  dream maker   you heart breaker 

     Em7 A7 Am D7  
Wherever you’re going I’m going your way 

----------

 G Em C G  
Two drifters off to see the world 

         C G Am B7 
There's such a lot of world to see 

       Em Em7 Cm G  
We're af--ter the same  rainbows end

 C G  
  Waiting round the bend 

 C G  
 My huckleberry friend 

 Em Am D7 G  
Moon River. .and me

--------------------
(Repeat if you want)


 Em G7 C Cm  
Oh  dream maker  you heart breaker 

     Em7 A7 Am D7  
Wherever you’re going I’m going your way 

----------

 G Em C G  
Two drifters off to see the world 

         C G Am B7 
There's such a lot of world to see 

       Em Em7 Cm G  
We're af--ter the same  rainbows end

 C G  
  Waiting round the bend 

 C G  
 My huckleberry friend 

Em   Am     D7  G////Cm////G
Moon River..and me

Enjoy and please be kind and rate!

You Raise Me Up chords – Josh Groban V8

 B E B G#m E F# F#sus4 F# G#m E B E B F# B B E B 
When I am down and, oh my soul, so weary;             
                B E F# F#sus4 F# 
When troubles come and my heart burdened be;     
              G#m E B E 
Then, I am still and wait here in the silence,   
             B F# B 
Until you come and sit awhile with me.              

 
Chorus:
              G#m E B F# 
You raise me up, so I can stand on mountains;                           
               G#m E B F#     
You raise me up, to walk on stormy seas;           
          G#m E B E 
I am strong, when I am on your shoulders;
              B F# B 
You raise me up to more than I can be.              

 C# Ab Ab Db C# F# C# 
There is no life, no life without its hunger,
               A#m F# G# 
Each restless heart beats so imperfectly,
              A#m F# C# F# 
But when you come, and I am filled with wonder,
             A#m G# C# 
Sometimes I think I glimpse eternity


Repeat chorus with key change (E)
              A#m F# C# G# 
You raise me up, so I can stand on mountains                           
              A#m F# C# G#     
You raise me up, to walk on stormy seas           
          A#m F# C# F# 
I am strong, when I am on your shoulders
              C# G# C# 
You raise me up to more than I can be.  
    

Repeat chorus (x2) with key change (F)
 Bm Bm G D A 
   You raise me up, so I can stand on mountains                           
              Bm G D A     
You raise me up, to walk on stormy seas           
          Bm G D G 
I am strong, when I am on your shoulders
              D A D 
You raise me up to more than I can be.      

I Am chords by Crowder V8

 ***Please give me feedback and your opinion! God bless!***
CAPO 2

Verse 1:
 D        
There's no space that His love can't reach
 Bm 
There's no space where we can't find peace
 A 
There's no end to amazing grace

Verse 2:
 D 
Take me in with Your arms spread wide
 Bm 
Take me in like an orphaned child
 A 
Never let go, never leave my side

Chorus:
 D 
I am, holding on to You
 Bm 
I am, holding onto You
 G 
In the middle of the storm 
                 D 
I am holding on, I am

Verse 3: 
 D 
Love like this, oh my God to find
 Bm 
I am overwhelmed with a joy divine
 A 
Love like this sets our hearts on fire (sets our hearts on fire)

Chorus: x2
 D 
I am, holding on to You
 Bm 
I am, holding onto You
 G 
In the middle of the storm
                  D 
I am holding on, I am

Bridge: x2
 D 
This is my resurrection song
 Bm 
This is my hallelujah call
 G 
This is why it's to You I run

Repeat Verse 1:
 D 
There's no space that His love can't reach
 Bm 
There's no place where we can't find peace
 A 
There's no end to amazing grace......

Chorus:
 D 
I am, holding on to You
 Bm 
I am, holding on to You
 G 
In the middle of the storm
                  D 
I am holding on, I am

Waltzing Matilda chords – Banjo Paterson V8

 Waltzing Matilda
by
Banjo Paterson



 G F#m Em Cadd9 
Once a jolly swagman camped by a billabong
  G D 
Under the shade of a coolabah tree
          G F#m Em Cadd9 
He sang as he watched, And waited 'til his billy boiled
   G D G 
You'll come a Waltzing Matilda with me


  G Cadd9 
Waltzing Matilda Waltzing Matilda
  G D            
You'll come a Waltzing Matilda with me
     G F#m Em Cadd9 
He sang as he watched, And waited 'til his billy boiled
  G D G 
You'll come a Waltzing Matilda with me


  G F#m Em Cadd9 
Down came a jumbuck to drink at the billabong
  G D 
Up jumped the swagman and grabbed him with glee
  G F#m Em Cadd9 
He sang as he shoved that jumbuck in his tucker bag
  G D G 
You'll come a Waltzing Matilda with me


  G Cadd9 
Waltzing Matilda Waltzing Matilda
  G D           
You'll come a Waltzing Matilda with me
     G F#m Em Cadd9 
He sang as he shoved that jumbuck in his tuckerbag
  G D G 
You'll come a Waltzing Matilda with me


  G F#m Em Cadd9 
Up rode the squatter mounted on his thoroughbred
  G D 
Up rode the troopers one two three
    G F#m Em Cadd9 
Who’s the jolly jumbuck that you've got in your tucker bag
  G D G 
You'll come a Waltzing Matilda with me


  G Cadd9 
Waltzing Matilda Waltzing Matilda
  G D           
You'll come a Waltzing Matilda with me

  G F#m Em Cadd9 
With the jolly jumbuck that you've got in your tucker bag
  G D G 
You'll come a Waltzing you scoundrel with me







 G F#m Em Cadd9 
Up jumped the swagman and sprang into the billabong
  G D 
You'll never take me alive said he
    G F#m Em Cadd9 
And his ghost maybe heard as you pass by that billabong
    G D G 
You'll come a Waltzing Matilda with me


   G Cadd9 
Waltzing Matilda Waltzing Matilda
  G D           
You'll come a Waltzing Matilda with me
      G F#m Em Cadd9 
And His ghost maybe heard as you pass by that billabong
  G D G 
You'll come a Waltzing Matilda with me  X2

  G D G 
You'll come a Waltzing Matilda with me

Tonight Tabs – Fm Static V8

 -------------------------------------------------------------------------------
                             SONG NAME - Band Name
-------------------------------------------------------------------------------
:


Tuning:

e|-2-4-2-0-0-0-2-4-2-2-4-2-0-0-4-4\5-4-0-------------------------------------|
B|---------------------------------------------------------------------------|
G|---------------------------------------------------------------------------|
D|---------------------------------------------------------------------------|
A|---------------------------------------------------------------------------|
E|---------------------------------------------------------------------------|

************************************

| /   slide up
| \   slide right
| h   hammer-on
| p   pull-off
| ~   vibrato
| +   harmonic
| x   Mute note
| b   Bend
| pb  Pre-bend
| br  Bend release
| pbr Pre-bend release
| brb Bend release bend

************************************

Thinking Out Loud chords – Ed Sheeran V8

 Tuning: standard
  
 D D/F G6 A               
      When your legs don't work like they used to before
 D D/F G6 A   
      And I can't sweep you off of your feet
 D D/F G6 A    
      Will your mouth still remember the taste of my love
 D D/F G6 A 
      Will your eyes still smile from your cheeks 
             
                   D D/F G6 A D D/F G6 A 
      And darling I will be loving you 'til we're 70

                D D/F G6 A D D/F  
      And baby my heart could still fall as hard at 23

           G6 A   
      And I'm thinking 'bout how 
     
      Em A D 
     people fall in love in mysterious ways
      Em A 
     Maybe just the touch of a hand
         Em A Bm 
     Oh me I fall in love with you every single day
          Em A A A A A 
     And I just wanna tell you I am 
             
                 D D/F G6 A D D/F G6    
     So honey now            take me into your loving arms
              A D D/F G6         
     Kiss me under the light of a thousand stars
      A D D/F 
     Place your head on my beating heart
                   G6 A 
     I'm thinking out loud
            Bm A G D/F Em A D  
     Maybe we found love right where we are 

 D D/F G6 A 
     When my hair's all but gone and my memory fades
 D D/F G6 A 
     And the crowds don't remember my name
 D D/F G6 A   
     When my hands don't play the strings the same way
 D D/F G6 A 
     I know you will still love me the same

                    D D/F G6 A D D/F G6 A  
     Cause honey your soul could never grow old, it's evergreen
                   D D/F G6 A D D/F    
     And, baby, your smile's forever in my mind and memory
     G6 A 
     I'm thinking 'bout how 

      Em A D 
     people fall in love in mysterious ways
      Em A 
     Maybe it's all part of a plan
            Em A Bm 
     Well, I'll just keep on making the same mistakes
      Em A 
     Hoping that you'll understand

            D D/F G6 A D D/F G6       
     baby, now              take me into your loving arms
      A D D/F G6 
     Kiss me under the light of a thousand stars
      A D D/F       
     Place your head on my beating heart
               G6 A 
     Thinking out loud
                 Bm A G D/F Em A D 
     That maybe we found love right 

Silent Night chords – Misc Christmas V8

 This is my version of Silent Night. Its a bit of a combination of using the chords as well as a tab.
Most of the song uses chords, but with slight variations on the fingerings. I am listing the names of
the base chords above the tab for a reference, but follow the fingerings in the tab instead of the chords.
I think that this version gives a little more depth of sound than just playing each note individually.
, so any feedback is welcomed!
Thanks and enjoy!!!

Silent Night

Capo 2

   A E A D A D A E A 
e|0-2-0-x|0-2-0-x|x-x-x-x-x-x|2-2-5-4-2-0-2-0-x-2-2-5-4-2-0-2-0-x|x-x-x-x-x-x-x-x-x-x-x-x-x-x|
B|2-2-2-2|2-2-2-2|0-0-x-x-x-x|3-3-3-3-3-2-2-2-2-3-3-3-3-3-2-2-2-2|0-0-3-0-x-x-2-x-x-x-x-x-x-x|
G|2-2-2-2|2-2-2-2|1-1-1-2-2-x|2-2-2-2-2-2-2-2-2-2-2-2-2-2-2-2-2-2|1-1-1-1-1-2-2-2-x-x-x-x-x-x|
D|2-2-2-2|2-2-2-2|2-2-2-2-2-2|0-0-0-0-0-2-2-2-2-0-0-0-0-0-2-2-2-2|2-2-2-2-2-2-2-x-2-x-2-0-x-x|
A|0-0-0-0|0-0-0-0|x-x-2-0-0-0|x-x-x-x-x-x-0-0-0-x-x-x-x-x-x-0-0-0|2-2-2-2-2-0-0-x-x-4-x-x-2-0|
E|x-x-x-x|x-x-x-x|x-x-x-x-x-0|x-x-x-x-x-x-x-x-x-x-x-x-x-x-x-x-x-x|x-x-x-x-x-x-x-x-x-x-x-x-x-x|

Then just repeat for as many verses as you want to do!

Verse 1:
Silent night, Holy night
All is calm, all is bright
Round yon virgin, mother and child
Holy infant, tender and mild
Sleep in heavenly peace,
Sleep in heavenly peace.

Verse 2:
Silent night, Holy night
Son of God, love's pure light
Radiant beams from thy holy face
With the dawn of redeeming grace,
Jesus, Lord at thy birth
Jesus, Lord at thy birth.

Verse 3:
Silent night, Holy night
Shepherds quake, at the sight
Glories stream from heaven above
Heavenly, hosts sing Hallelujah.
Christ the Savior is born, 
Christ the Savior is born.

Wherever You Will Go Tabs – Calling V8

 -------------------------------------------------------------------------------
                           Wherever you will go - The Calling 
-------------------------------------------------------------------------------
:Ken Lavina
kenbrian03

Tuning:EADGBE
 
Intro:

e|--------------------|--------------------|------------------|----1-----1---1--|
B|----------1---------|------------0-------|------------1-----|-----------------|
G|------0----0--------|------0-------0-----|------2-------0---|-----------------|
D|----2---2----2------|----0----0------0---|----2----2------2-|-----------------|
A|--3----3------------|--2----2------------|--0----0----------|--3----3---------|
E|--------------------|--------------------|------------------|-1-------1--3----|

Verse: 1
 
e|--------------------|--------------------|------------------|-----------------|
B|--------0-1---1-----|--------0--1---1----|--------0-1---1---|--3---1---0--1---|
G|------0-----0-------|------0--0---0------|------2-----0-----|----0---0--------|
D|----2---------------|----0---------------|----2-------------|--3--------------|
A|--3-----------------|--2-----------------|--0---------------|-----------------|
E|--------------------|--------------------|------------------|-----------------|

e|--------------------|--------------------|------------------|-----------------|
B|--1-----0-1---1-----|--------3--1---1----|--------0-1---1---|--3---1---0--1---|
G|------0-----0-------|------0--0---0------|------2-----0-----|----0---0--------|
D|----2---------------|----0---------------|----2-------------|--3--------------|
A|--3-----------------|--2-----------------|--0---------------|-----------------|
E|--------------------|--------------------|------------------|-----------------|

Pre-Chorus:1

e|--------0-----------|----------0---------|------------------|-----------------|
B|--1---1---1---------|--3----3------------|--1----0-1--------|--3---1-0-1------|
G|------0-------------|--------------------|------------------|-----------------| 
D|------2-------------|--------------------|--2---------------|-----------------|
A|--3---3-------------|--------------------|------------------|-----------------|
E|--------------------|--3-3--3------------|------------------|--1---1----------|

e|--------0-----------|----------0---------|--1---0-----------|-----------------|
B|--1---1---1---------|--3----3------------|---------0-1------|--3---1-0-1------|
G|------0-------------|--------------------|------------------|-----------------| 
D|------2-------------|--------------------|--2---------------|-----------------|
A|--3---3-------------|--------------------|------------------|-----------------|
E|--------------------|--3-3--3------------|------------------|--1---1----------|


Chorus:

e|--------------------|--3-----------------|------------------|-----------------|
B|--1----0--1--1------|--3-----0--1--------|--1----0-1-1------|--3--1-0-1-------|
G|--0--0-------0------|--0--0--------------|--2--2-----2------|--2--------------|
D|--2----------2------|--0-----------------|--2--------2------|--3--------------|
A|--3----------3------|--2-----------------|------------------|-----------------|
E|--------------------|--3-----------------|------------------|-----------------|

e|--------------------|--3-----------------|------------------|-----------------|
B|--1----0--1--1------|--3-----3--1--------|--1----0-1-1------|--3--1-0-1--1----|
G|--0--0-------0------|--0--0--------------|--2--2-----2------|--2---------0----| 
D|--2----------2------|--0-----------------|--2--------2------|--3---------2----|
A|--3----------3------|--2-----------------|------------------|------------3----|
E|--------------------|--3-----------------|------------------|-----------------|

Verse:2

e|--------------------|--------------------|------------------|-----------------|
B|----0-1---1---------|---------3---2------|--------0--1---1--|--3---1---0--1---|
G|--0-----0-----------|------0---

Yellow Tabs – Coldplay V8

 -------------------------------------------------------------------------------
                                YELLOW - Coldplay
-------------------------------------------------------------------------------
: Martin Bowers

Tuning: EADGBE*

*NB: This tab is a variation of the original that allows it to be 
     played with standard EADGBE tuning.


Intro (acoustic):

    B                           B        Badd4    
e|--7--7--7--7--7--7--7--7-7-|--7--7--7--0--0--0--0--0--|
B|--7--7--7--7--7--7--7--7-7-|--7--7--7--0--0--0--0--0--|
G|--8--8--8--8--8--8--8--8-8-|--8--8--8--8--8--8--8--8--|
D|--9--9--9--9--9--9--9--9-9-|--9--9--9--9--9--9--9--9--|
A|--9--9--9--9--9--9--9--9-9-|--9--9--9--9--9--9--9--9--|
E|--7--7--7--7--7--7--7--7-7-|--7--7--7--7--7--7--7--7--|
    |  |  |  |  |  |  |  | ˄    |  |  |  |  |  |  |  |
    ▼  ˅  ▼  ˅  ˅  ˅  ▼  ˅ |    ▼  ˅  ▼  ˅  ˅  ˅  ˅  ˅

    B                           B        Badd4    
e|--7--7--7--7--7--7--7--7-7-|--7--7--7--0--0--0--0--0--|
B|--7--7--7--7--7--7--7--7-7-|--7--7--7--0--0--0--0--0--|
G|--8--8--8--8--8--8--8--8-8-|--8--8--8--8--8--8--8--8--|
D|--9--9--9--9--9--9--9--9-9-|--9--9--9--9--9--9--9--9--|
A|--9--9--9--9--9--9--9--9-9-|--9--9--9--9--9--9--9--9--|
E|--7--7--7--7--7--7--7--7-7-|--7--7--7--7--7--7--7--7--|
    |  |  |  |  |  |  |  | ˄    |  |  |  |  |  |  |  |
    ▼  ˅  ▼  ˅  ˅  ˅  ▼  ˅ |    ▼  ˅  ▼  ˅  ˅  ˅  ˅  ˅

    B                           B        Badd4    
e|--7--7--7--7--7--7--7--7-7-|--7--7--7--0--0--0--0--0--|
B|--7--7--7--7--7--7--7--7-7-|--7--7--7--0--0--0--0--0--|
G|--8--8--8--8--8--8--8--8-8-|--8--8--8--8--8--8--8--8--|
D|--9--9--9--9--9--9--9--9-9-|--9--9--9--9--9--9--9--9--|
A|--9--9--9--9--9--9--9--9-9-|--9--9--9--9--9--9--9--9--|
E|--7--7--7--7--7--7--7--7-7-|--7--7--7--7--7--7--7--7--|
    |  |  |  |  |  |  |  | ˄    |  |  |  |  |  |  |  |
    ▼  ˅  ▼  ˅  ˅  ˅  ▼  ˅ |    ▼  ˅  ▼  ˅  ˅  ˅  ˅  ˅

    F#add11                     F#add11
e|---------------------------|---------------------------|
B|--0--0--0--0--0--0--0--0-0-|--0--0--0--0--0--0--0--0-0-|
G|--3--3--3--3--3--3--3--3-3-|--3--3--3--3--3--3--3--3-3-|
D|--4--4--4--4--4--4--4--4-4-|--4--4--4--4--4--4--4--4-4-|
A|--4--4--4--4--4--4--4--4-4-|--4--4--4--4--4--4--4--4-4-|
E|--2--2--2--2--2--2--2--2-2-|--2--2--2--2--2--2--2--2-2-|
    |  |  |  |  |  |  |  | ˄    |  |  |  |  |  |  |  | ˄
    ▼  ˅  ▼  ˅  ˅  ˅  ▼  ˅ |    ▼  ˅  ▼  ˅  ˅  ˅  ▼  ˅ |

    E                           E 
e|--0--0--0--0--0--0--0--0-0-|--0--0--0--0--0--0--0--0-0-|
B|--0--0--0--0--0--0--0--0-0-|--0--0--0--0--0--0--0--0-0-|
G|--1--1--1--1--1--1--1--1-1-|--1--1--1--1--1--1--1--1-1-|
D|--2--2--2--2--2--2--2--2-2-|--2--2--2--2--2--2--2--2-2-|
A|--2--2--2--2--2--2--2--2-2-|--2--2--2--2--2--2--2--2-2-|
E|--0--0--0--0--0--0--0--0-0-|--0--0--0--0--0--0--0--0-0-|
    |  |  |  |  |  |  |  | ˄    |  |  |  |  |  |  |  | ˄
    ▼  ˅  ▼  ˅  ˅  ˅  ▼  ˅ |    ▼  ˅  ▼  ˅  ˅  ˅  ▼  ˅ |

    B                           B        Badd4    
e|--7--7--7--7--7--7--7--7-7-|--7--7--7--0--0--0--0--0--|
B|--7--7--7--7--7--7--7--7-7-|--7--7--7--0--0--0--0--0--|
G|--8--8--8--8--8--8--8--8-8-|--8--8--8--8--8--8--8--8--|
D|--9--9--9--9--9--9--9--9-9-|--9--9--9--9--9--9--9--9--|
A|--9--9--9--9--9--9--9--9-9-|--9--9--9--9--9--9--9--9--|
E|--7--7--7--7--7--7--7--7-7-|--7--7--7--7--7--7--7--7--|
    |  |  |  |  |  |  |  | ˄    |  |  |  |  |  |  |  |
    ▼  ˅  ▼  ˅  ˅  ˅  ▼  ˅ |    ▼  ˅  ▼  ˅  ˅  ˅  ˅  ˅



  Main riff used frequently throughout song (distorted electric): 
  

e|--7--7--7--7--7--7--7--7--|--7--7--7--7--7--7--7--7--|
B|--7--7--7--7--7--7--7--7--|--7--7--7--7--7--7--7--7--|
G|9b11-11-11-11-11-11-11-11-|-r9--9--9--9--9--9--9--9--|
D|--------------------------|--------------------------|
A|--------------------------|--------------------------|
E|--------------------------|--------------------------|


e|---11-11-11-11-11-11-11-11-|--11-11-11-11-11-11-11-11-|
B|---11-11-11-11-11-11-11-11-|--11-11-11-11-11-11-11-11-|
G|13b15-15-15-15-15-15-1

How Did You Know chords – Gary Valenciano V8

 #----------------------------------PLEASE NOTE---------------------------------#
#This file is the author's own work and represents their interpretation of the #
#song. You may only use this file for private study, scholarship, or research. #
#------------------------------------------------------------------------------#

Song: HOW DID YOU KNOW
Artist: Gary Valenciano
Chords by: Louie A. Ebojo
Email: ebbskyz

Tuning: Standard
Chords:         EADGBe
 D                xx0232           Bb7sus           x13141
 A/C#             x42220           Bb7              x13131
 C6               x32210           Eb               x65343
 G/B              x20003           Gm7              353333
 Dsus/Bb          x1x233           Fm7              131111
 D/A              x0x232           Bb7/D            xx0131
 E/G#             4x245x           G7               320001
 A7sus            x02030           B                x24442
 A7               x02020           Eb/Bb            6x8886
 F#m7             242222           Gm7/Bb           x1x333
 Em               022000           F/A              x03211
 Bm7              x24232           Ddim7            x56464
 A7/C#            x4565x           Eb/G             365343
 F#7              242322           Bb/D             xx0331
 Bb               x13331           C#6              x46666
 C#dim7           x4545x           Ab/C             x3111x
 D/F#             2x0232           Ebsus/B          x2x344
 Bm6              x21132           D9/A             x0x230          


Intro: D-A/C#-C6-G/B-
       Dsus/Bb-D/A-E/G#-A7sus,A7

   D A/C# 
   I remember so well
                      C6 G/B 
   The day that you came into my life
   Dsus/Bb D/A 
   You  asked for my name
               E/G#             A7sus,A7
   You had the most beautiful smile

        D A/C# 
   My life started to change
                 C6 G/B 
   I'd wake up each day feeling alright
         Dsus/Bb D/A 
   With you   right by my side
                   A7sus A7 D   A7sus,A7
   Makes me feel things will work out just fine

                 D 
   How did you know
              F#m7 Em 
   I needed someone like you in my life
                    A7sus A7 D   
   That there's an empty space in my heart
                    Bm7               Em-A7sus
   You came at the right time in my life
       A7 D 
   I'll never forget
                        Bm7 Em 
   How you brought the sun to shine in my life
                     A7/C# F#7 Bm7 Bb 
   And took all the worries and fears that I had
                      D/A Em 
   I guess what I'm really trying to say
              D9/A 
   It's not everyday 
                      E/G# C#dim7 
   That someone like you comes my way
       D/F# Bm6 Em A7 D   Bb7sus,Bb7
   No words can express how much I love you

                 Eb 
   How did you know
               Gm7 Fm7 
   I needed someone like you in my life
                     Bb Eb 
   That there'

The Man Who Cant Be Moved chords – The Script V8

 CAPO 3

There are some other good tabs of this song, but there are a couple of issues with some 
of the previous ones:
-This gets more exact to the progressions by being less vague on some of the chords.
-Play the G with the strings pressed down on the 3rd fret on both the E-string and the 
B-string. Do the same with the Em7.
-Use these fingerings for the Dadd11 and Cadd9 respectively:

Dadd11    Cadd9 

E|-3-|   E|-3-|
B|-3-|   B|-3-|
G|-0-|   G|-0-|
D|-0-|   D|-2-|
A|-0-|   A|-3-|
E|-2-|   E|-x-|

(Optional Intro: Play through verse progression once)
      G                           Dadd11
Going back to the corner where I first saw you,
      Am7 Cadd9 
Gonna camp in my sleeping bag not I'm not gonna move,
       G                        Dadd11
Got some words on cardboard got your picture in my hand,
      Am7 Cadd9 
Saying if you see this girl can you tell her where I am,
            G                        Dadd1
Some try to hand me money they don't understand,
         Am7 Cadd9 
I'm not... broke I'm just a broken hearted man,
           G                            Dadd11
I know it makes no sense, but what else can I do,
   Am7 Cadd9 
How can I move on when I've been in love with you...


          G D/F# 
Cos if one day you wake up and find that your missing me,
            Am7 C 
And your heart starts to wonder where on this earth I can be,
          G D/F# 
Thinking maybe you'd come back here to the place that we'd meet,
            Am7 C D/F# 
And you'd see me waiting for you on the corner of the street.


         G D/F# 
So I'm not moving...
         Am7 C 
I'm not moving.


 G                        Dadd11
Policeman says son you can't stay here,
                Am7 Cadd9 
I said there's someone I'm waiting for if it's a day, a month, a year,
       G                        Dadd11
Gotta stand my ground even if it rains or snows,
       Am7 Cadd9 
If she changes her mind this is the first place she will go.


          G D/F# 
Cos if one day you wake up and find that your missing me,
            Am7 C 
And your heart starts to wonder where on this earth I can be,
          G D/F# 
Thinking maybe you'd come back here to the place that we'd meet,
            Am7 C D/F# 
And you'd see me waiting for you on the corner of the street.

         G D/F# 
So I'm not moving...
         Am7 C 
I'm not moving.


         G D/F# 
So I'm not moving...
         Am7 C 
I'm not moving.


 Em7 Am7 
People talk about the guy
        C 
Whos waiting on a girl...


       Em7 Am7 
There's no hole in his shoes
           C 
But a big hole in his world... (Hold C)



 Em7 D/F# 
Maybe I'll get famous as man who can't be moved,
 Am7 C D/F# 
And maybe you won't mean to but you'll see me on the news,
                Em7 D/F# 
And you'll come running to the corner...
        Am7 
Cos you'll know it's just for you

I'm the man who can't be moved
           C 
I'm the man who can't be moved...

          G D/F# 
Cos if one day you wake up and find that your missing me,
            <spa

Talking To The Moon chords – Bruno Mars V8

 C E7 Am G F C                                   
 I know you're somewhere out there  
 E7 
Somewhere far away    
   Am G 
I want you back
   F     
I want you back

 C 
 My neighbors think I'm crazy
     E7 
But they don't understand
        Am G 
You're all I have
        F 
You're all I have

 Dm G Dm 
    At night when the stars light up my room
             G 
I sit by myself

                F G Am 
Talkin' to the moon
                  F G Am 
Try'in to get to you
    F G  
In hopes you're the other side
 C G/B Am  
Talkin' to me too
    G F 
Or am I a fool
          G 
Who sits alone
                Am G  
Talkin' to the moon
 D 
Oh

 C 
 I'm feelin' like I'm famous
     E7 
The talk of the town
          Am G 
They say I've gone mad
       F 
Yeah, I've gone mad

 C 
 But they don't know what I know
        E7 
'Cause when the sun goes down
           Am G 
Someone's talkin' back
               F  
Yeah, they're talkin' back, oh

 Dm G Dm 
  At night when the stars light up my room
             G 
I sit my myself

                F G Am 
Talkin' to the moon
                  F G Am 
Try'in to get to you
    F G  
In hopes you're on the other side
 C G/B Am 
Talkin' to me too
    G F 
Or am I a fool
          G 
Who sits alone
                Dm 
Talkin' to the moon

(Ah)
 C 
 (Ah)
 Dm 
 (Ah)
 Gsus G 
Do you ever hear me callin'?

 Dm 
 (Ah) oh, oh
   C  
Oh (ah)oh, oh
 Dm 
Oh (ah)
 Gsus G F G Am 
'Cause ev'ry night I'm talkin' to the moon
                        F G Am 
Still try'in to get to you
    F G 
In hopes you're on the other side
 C G/B Am 
Talkin' to me too
           F 
Or am I a fool
          G 
Who sits alone
                Am G   
Talkin' to the moon
  D 
Oh

 C 
  I know you're somewhere out there
 E7 
Somewhere far away

Do You Want To Build A Snowman chords – Frozen V8

 I put this together for piano players, it's in the original key. Enjoy!

                        Eb 
Do you want to build a snowman?
                      Bb 
Come on let's go and play
                 Cm 
I never see you anymore
      Ab 
Come out the door,
                       Bb 
It's like you've gone away
                    Cm 
We used to be best buddies
     Eb 
And now we're not
   Cm G Ab 
I wish you would tell me why
                        Eb 
Do you want to build a snowman?
                         Ab 
It doesn't have to be a Snowman

Young Elsa: Go away, Anna
              Abm Eb 
Toddler Anna: Okay, bye



                         Eb 
Do you wanna build a snowman?
                               Bb 
Or ride our bike around the halls
                           Cm 
I think some company is overdue
                 Ab Bb 
I've started talking to the pictures on the walls
(Hang in there, Joan)
                    Cm 
It gets a little lonely
                   Eb 
All these empty rooms
          Cm G Ab 
Just watching the hours tick by
(Tic-Tock, Tic-Tock)


                            Eb 
Please, I know you're in there
                                Bb 
People are asking where you've been
                                       Cm 
They say have courage, and I'm trying to
                         Ab Bb 
I'm right out here for you, just let me in
               Cm 
We only have each other
            Eb 
It's just you and me
 Cm G Ab 
What are we gonna do?
                         Eb 
Do you wanna build a snowman?

Never Say Never chords – The Fray V8

 Hey! the other chords - repairxmanmanx are amazing but i found it a little hard 
to play because only one line of lyrics were given, so i used the same chords - 
repairxmanmanx- full creds to them, but used the whole song :) enjoy! *note Bm can 
be substituted for D, if you have trouble playing Bm :)

 

Capo 1 

 G D Em  
Some things we don't talk about
 C G Gb 
Rather do without and just hold the smile
 G D Em  
Falling in and out of love
 C G Gb 
Ashamed and proud of, together all the while

 G Bm    
You can never say never
                 Em  
While we don't know it
  D C  
But time and time again
         G Gb 
Younger now than we were before

 G Bm  
Don't let me go
 Em C 
Don't let me go
 G Bm  
Don't let me go

 Em C 
Don't let me go
 G Bm  
Don't let me go
 Em C 
Don't let me go

 G D Em  
Picture, you're the queen of everything
 C G Gb 
Far as the eye can see under your command
 G D Em C G                      
I will be your guardian when all is crumbling
                   Gb 
I'll steady your hand


 G Bm    
You can never say never
                 Em  
While we don't know it
  D C  
But time and time again
         G Gb 
Younger now than we were before

 G Bm  
Don't let me go
 Em C 
Don't let me go
 G Bm  
Don't let me go

 Em C 
Don't let me go
 G Bm  
Don't let me go
 Em C 
Don't let me go

 Asus2 Em D 
We're falling apart and coming
 Asus2 Em D 
Together again and again
 Asus2 Em D 
We're growing apart but we pull it together
 Asus2 Em D 
Pull it together, together again


 G Bm  
Don't let me go
 Em C 
Don't let me go
 G Bm  
Don't let me go

 Em C 
Don't let me go
 G Bm  
Don't let me go
 Em C 
Don't let me go


 G Bm  
Don't let me go
 Em C 
Don't let me go
 G Bm  
Don't let me go

 Em C 
Don't let me go
 G Bm  
Don't let me go
 Em C 
Don't let me go

Before He Cheats chords – Carrie Underwood V8

 Capo 2

Intro   Em D C D Em D C B7 Em D C 
Right now he's probably slow dancing with a bleached-blond tramp,
           B7 
and she's probably getting frisky...
 Em D C 
right now, he's probably buying her some fruity little drink
            B7  
'cause she can't shoot whiskey...
 Em D C 
Right now, he's probably up behind her with a pool stick,
             B7 Am 
showing her how to shoot a combo...
 Am B7 
And he don't know...

        C Em 
That I dug my key into the side
        C Em 
of his pretty little souped up 4 wheel drive,
 C Em B7 
carved my name into his leather seats...
          C Em 
I took a Louisville slugger to both headlights,
 C Em  
slashed a hole in all 4 tires...
 C B7 
Maybe next time he'll think before he cheats.

 Em D C B7 Em D 
Right now, she's probably up singing some
 C B7 
white-trash version of Shania karaoke.
 Em D 
Right now, she's probably saying, "I'm drunk"
 C B7  
and he's a-thinking that he's gonna get lucky,
 Em D  
Right now, he's probably dabbing on
   C B7 Am  
3 dollars worth of that bathroom Polo...

 Am B7 
Oh, and he don't know...

        C Em 
That I dug my key into the side
        C Em 
of his pretty little souped up 4 wheel drive,
 C Em B7 
carved my name into his leather seats...
          C Em 
I took a Louisville slugger to both headlights,
 C Em  
slashed a hole in all 4 tires...
 C B7 
Maybe next time he'll think before he cheats.

 Em G D C 
I might've saved a little trouble for the next girl,
            A 
'cause the next time that he cheats...
 B7 Em  
Oh, you know it won't be on me!

 D C B7 C Em 
That I dug my key into the side
        C Em 
of his pretty little souped up 4 wheel drive,
 C Em B7 
carved my name into his leather seats...
          C Em 
I took a Louisville slugger to both headlights,
 C Em  
slashed a hole in all 4 tires...
 C B7 
Maybe next time he'll think before he cheats.

 Am Bm6 C B7 
Oh, maybe next time he'll think before he cheats...

 Em D C B7 Em D C B7 Em *     
Oh, before he cheats... oh, oh.

A Change Is Gonna Come chords – Sam Cooke V8

 A Change is Gonna Come - Sam Cooke


  Bb 
I was born by the river in a little tent
  Cm7 Gm7 
And just like that river I've been running ever since
  Bb Cm7 Eb D7 
It's been a long time coming
  Gm7 Bb 
But I know a change is gonna come, oh yes it will
 
It's been too hard living, but I'm afraid to die
Cos I don't know what's out there beyond the sky
It's been a long, a long time coming
But I know a change is gonna come, oh yes it will

I go to the movie
And I go down town
somebody keep telling me don't hang around
Its been along time coming
But I know a change is gonna come, oh yes it will

   Cm7 Gm7 
Then I go to my brother
   Cm7 Gm7 
And I say brother help me please
   Gm7 C7 
But he winds up knockin' me
    F7 
Back down on my knees

There were times when I thought I couldn't last for long
But now I think I'm able to carry on
It's been a long, a long time coming
But I know a change gone come, oh yes it will

Still chords – Hillsongs V8

 Still – Hillsong
Try  In Key of  E
for high pitch male voice
 Christian Estoesta of
British School Manila
January 2014

 E E/D# C#m 
Hide me    now
   A F# B 
Under your wings
 E E/D# C#m 
Co...ver   me
 A F# B 
Within Your mighty hands

Refrain
  E A 
When the ocean rise
           E B 
and thunder roar
                       A 
I will soar with you
           B C#m 
above the storm
                          A B E 
Father You are King over the flood
            C#m F#m B 
I will be still know You are God

 E E/D# C#m 
Unrest my   soul
 A F# B 
in Christ alone
 E E/D# C#m 
Know His desire
     A F# B 
 in quiteness and trust

Take Me Out Tabs by Franz Ferdinand V8

 ----------------------------------
  Take Me Out - Franz Ferdinand
----------------------------------
: millarso (Jake Miller)
 millarso2.0

Tuning: Standard

Alright, I got sick of every other tab looking messy or having a bunch of
little things wrong, so I'm going to see if I can finally get a 5 star
version up here. Wish me luck.

Intro
Both Guitars
E|----------------------------------------------------|
B|----------------------------------------------------|
G|----------------------------------------------------|
D|----------------------------------------------------|
A|-777~---7-7-7-7-7-7-7-7-7-7-7-7-7-7-7-7-7-7-7-7-7-7-|
E|-000~---0-0-0-0-0-0-0-0-0-0-0-0-0-0-0-0-0-0-0-0-0-0-|

SECTION 1
Guitar 1 (Left Stereo)
E|---------------------------------------------------------------------|
B|---------------------------------------------------------------------|
G|---------------------------------------------------------------------|
D|-5-5-5-5-5-5-5-5-4-4-4-4-4-4-4-4-9--9--9--9--7-7-7-7-5-5-5-5-5-5-5-5-|
A|-7-7-7-7-7-7-7-7-5-5-5-5-5-5-5-5-10-10-10-10-9-9-9-9-7-7-7-7-7-7-7-7-|
E|---------------------------------------------------------------------|
||
Guitar 2 (Right Stereo)
E|-----------------------------------------------------------------|
B|-----------------------------------------------------------------|
G|-----------------------------------------------------------------|
D|-5-5-5-5-5-5-5-5-4-4-4-4-4-4-4-4/9-9-9-9-7-7-7-5-5-5-5-5-5-------|
A|-----------------------------------------------------------5-5-7-|
E|-----------------------------------------------------------------|

Guitar 1
E|---------------------------------------------------------------------|
B|---------------------------------------------------------------------|
G|---------------------------------------------------------------------|
D|-5-5-5-5-5-5-5-5-4-4-4-4-4-4-4-4-9--9--9--9--7-7-7-7-5-5-5-5-5-5-5-5-|
A|-7-7-7-7-7-7-7-7-5-5-5-5-5-5-5-5-10-10-10-10-9-9-9-9-7-7-7-7-7-7-7-7-|
E|---------------------------------------------------------------------|
||
Guitar 2
E|-----------------------------------------------------------------|
B|-----------------------------------------------------------------|
G|-----------------------------------------------------------------|
D|-5-5-5-5-5-5-5-5-4-4-4-4-4-4-4-4/9-9-9-9-7-7-7-5-5-5-5-5-5-5-5---|
A|---------------------------------------------------------------5-|
E|-----------------------------------------------------------------|

Guitar 1
E|---------------------------------------------------------------------|
B|---------------------------------------------------------------------|
G|---------------------------------------------------------------------|
D|-5-5-5-5-5-5-5-5-4-4-4-4-4-4-4-4-9--9--9--9--7-7-7-7-5-5-5-5-5-5-5-5-|
A|-7-7-7-7-7-7-7-7-5-5-5-5-5-5-5-5-10-10-10-10-9-9-9-9-7-7-7-7-7-7-7-7-|
E|---------------------------------------------------------------------|
||
Guitar 2
E|-----------------------------------------------------------------|
B|-----------------------------------------------------------------|
G|-----------------------------------------------------------------|
D|---5-5-5-5-5-5-5-4-4-4-4-4-4-4-4/9-9-9-9-7-7-7-5-5-5-5-5-5---5---|
A|-7---------------------------------------------------------5---5-|
E|-----------------------------------------------------------------|

Guitar 1
E|---------------------------------------------------------------------|
B|---------------------------------------------------------------------|
G|---------------------------------------------------------------------|
D|-5-5-5-5-5-5-5-5-4-4-4-4-4-4-4-4-9--9--9--9--7-7-7-7-5-5-5-5-5-5-5-5-|
A|-7-7-7-7-7-7-7-7-5-5-5-5-5-5-5-5-10-10-10-10-9-9-9-9-7-7-7-7-7-7-7-7-|
E|---------------------------------------------------------------------|
||
Guitar 2
E|-----------------------------------------------------------------|
B|---

Africa chords – Toto V8

 AFRICA - TOTO

                              A  |  C#m  || x4

 B D#m7 G#m 
I hear the drums echoin' tonight
 G#m/F# A/E E/F# E/G# A C#m 
She hears only whispers of some quiet conversa - tion
 B D#m7 G#m G#m/F# 
She's coming in twelve thirty flight   the moonlit wings
        A/E E/F# E/G# A C#m 
     Reflect the stars that guide me toward salva-tion
 B D#m7 G#m 
I stopped an old man along the way
 G#m/F# A/E E/F# E/G# A C#m 
Hoping to find some old forgotten words or ancient melo-dies
 B D#m7 G#m A C#m 
He turned to me as if to say  hurry boy it's waiting there for you
    F#m D A E 
     Gonna take a lot to drag me away from you
    F#m D A E 
     There's nothing that a hundred men or more could ever do       
    F#m D A E 
     I bless the rains down in   Africa
    F#m D A C#m E F#m E/G# A C#m 
     Gonna take some time to do the things we never  had

 B D#m7 G#m 
The wild dogs cry out in the night
    G#m/F# A/E E/F# E/G# A C#m 
As they grow restless longing for some solitary compa-ny
 B D#m7 G#m 
I know that I must do what's right
         G#m/F# A/E E/F# E/G# A C#m 
Sure as Kilimanjaro rises like Olympus above the Serenge-ti
      B D#m7 G#m 
     I seek to cure what's deep inside
 G#m A C#m 
Frightened of this thing that I've become
    F#m D A E 
     Gonna take a lot to drag me away from you
    F#m D A E 
     There's nothing that a hundred men or more could ever do
    F#m D A E 
     I bless the rains down in   Africa
    F#m D A C#m E F#m E/G# A C#m 
     Gonna take some time to do the things we never  had
-----------------------------------------------------------------------------
SOLO:  B D#m7 G#m G#m/F# A/E E/F# E/G# A C#m B D#m7 G#m G#m A C#m 
               hurry boy it's waiting there for you
    F#m D A E 
     Gonna take a lot to drag me away from you
    F#m D A E 
     There's nothing that a hundred men or more could ever do
    F#m D A E 
     I bless the rains down in   Africa [REPEAT X4]
    F#m D A C#m E F#m E/G# A C#m 
     Gonna take some time to do the things we never  had

Notes: The chords are correct, I spent years playing the wrong bass notes before 
learning them.
I've changed the line "