Tag: va

Todo Va A Arder Tabs – Diamante Eléctrico

 : algove96
 algove96@hotmail.com

Tuning: Standard

Canción nominada al Grammy Latino como mejor canción rock. Album "B" (2015)
Latin Grammy nominated for "best rock song". B (2015)


                 E7*                          E7          B             C#             G              E  
e|------0-------0------0-------0---|      e|--7--|    e|--7--|      e|--9--|       e|--3--|       e|--5--| 
B|--------3-------3------3-------3-|      B|--9--|    B|--7--|      B|--9--|       B|--3--|       B|--5--|      
G|---------------------------------|      G|--7--|    G|--8--|      G|--10-|       G|--4--|       G|--6--|     
D|---------------------------------|      D|--9--|    D|--9--|      D|--11-|       D|--5--|       D|--7--|      
A|---2-----------------------------|      A|--7--|    A|--9--|      A|--11-|       A|--5--|       A|--7--|      
E|-0---------0-------0-------0-----|      E|-----|    E|--7--|      E|--9--|       E|--3--|       E|--5--|      



Intro: E7


            E7
Hagámonos mierda
            B
Resistirnos al destino
            C#              E7
Bajemos al abismo, te quiebras
      B
Somos del mismo cemento
     C#
Una causa y un efecto

E7*
Ahora mátame si quieres
G                E
No hay donde correr
E7*                           G
Estoy perdido he decidido que
               E
Entre tu y yo todo va a arder

E7
                                             _
            E7                                |
Hagámonos mierda                              |
            B                                 |
Acumulemos cicatrices                         |
            C#                   E7           |--> Acá el ritmo es corchea-negra y NO negra-negra como antes
y polvo entre las luces, me lleva             |    Rithm in here is quaver-crotchet INSTEAD of crotchet-crotchet
             B                                |
Si me veo en tu reflejo                       |
       C#                                     |
Comparteme tu infierno                       _|


E7*
Ahora mátame si quieres
G                E
No hay donde correr
E7*                           G
Estoy perdido he decidido que
               E
Entre tu y yo todo va a arder


SOLO
El solo está en la escala de E Menor Pentatónica (E Pentatonic Minor Scale). Estoy casi 100% seguro del solo 
pero si a alguien no le parece puede improvisar sobre la escala  

e|-----------------------------------------------------------------------------|
B|-----------------------------------------------------------------------------|
G|------------------------------------7-----------------7----------------------|
D|------5-7-5-7b---5-------------7/9----9-7-7-5----7/9----9-7-7-5---/7--5------|  |7b| se puede tocar |7/8\7|
A|--5h7--------------7\------5h7-----------------7----------------7-------7\---|
E|-----------------------------------------------------------------------------|

e|-----------------------------------------------------------------------------|
B|--------------------------------------------8b---------------8-8-------------|
G|-----------7-----------------7-9p7h9--7-9-7-----7-9---7-9-7------7-9--7-9-7--|
D|------7/9----9-7-7-5----7/9--------------------------------------------------|
A|--5h7-----------------7------------------------------------------------------|
E|-----------------------------------------------------------------------------|

e|-----------------------------------------------------------------------------|
B|--8-10-10pb-10pb---10pbr8-8--10p8-------8brb------8-----8-----8/10-8---------|    |10b| se puede tocar |12|
G|-------------------------9--------9p7h9------9p7-9--7-9---7-9-------7-9-9h7--|    |10pbr8| como |12p10p8| 
D|------------------------------------------------9--------------------------9-|    |8brb| como |8/9\8|
A|-----------------------------------------------------------------------------|
E|-----------------------------------------------------------------------------|

e|--------------------------------------

De Va Veni La Tine Vântul chords – Mondial

 music: Romeo Vanica
words: Octavian Goga
 Mondial EP(1970)

I:

 Em 
De va veni la tine vântul
                       Am 
Purtând povestea mea amara, 
                      Em                      
Jelitul lui sa nu te frânga.
 B7 Em 
Mustrarea lui sa nu te doara.
 Am Em 
Jelitul lui sa nu te frânga.
 B7 Em 
Mustrarea lui sa nu te doara.

CHORUS:

 B7 Em 
Nu-i vina ta, aşa e scrisă
 C Em 
Nemilostiva lege-a firii.
 G B7 
Sărutul otrăvit al brumii
 F#7 B7 
Omoară toamna trandafirii.

II:

 Em 
Şi cine s-ar opri sa plânga
                     Am 
O funza veşteda-n carare
                       Em 
Când codrii freamata alaturi
 B7 Em 
Şi râd în rasarit de soare?
 Am Em 
Când codrii freamata alaturi
 B7 Em 
Şi râd în rasarit de soare.

CHORUS:

 B7 Em 
Nu-i vina ta, aşa e scrisă
 C Em 
Nemilostiva lege-a firii.
 G B7 
Sărutul otrăvit al brumii
 F#7 B7 
Omoară toamna trandafirii.

III:

 Em 
Şi cine s-ar opri sa plânga
                     Am 
O funza veşteda-n carare
                       Em 
Când codrii freamata alaturi
 B7 Em 
Şi râd în rasarit de soare?
 Am Em 
Când codrii freamata alaturi
 B7 Em 
Şi râd în rasarit de soare.
 B7 C 
Şi râd în rasarit de soare.
 D7 Em 
Şi râd în rasarit de soare.

Youll Never Know chords Va Lynn

 C Dm G 
You'll never know just how much I miss you,
 F C G 
You'll never know just how much I care...
 C Am G 
And if I tried, I still couldn't hide my love for you,
 Dm G C 
You ought to know, for haven't I told you so,
   B C 
A million or more times?

 C Dm G 
You went away and my heart went with you,
 F C G Dm 
I speak your name in my every prayer.
 Dm G 
If there is some other way to prove that I love you
 Am 
I swear I don't know how...
 B G C 
You'll never know if you don't know now.

[Break]  Em Dm G C Dm G 
You went away and my heart went with you,
 F C G Dm 
I speak your name in my every prayer.
 Dm G 
If there is some other way to prove that I love you
 Am 
I swear I don't know how...
 B G C 
You'll never know if you don't know now.

A Va Pas Changer Le Monde chords – Joe Dassin

 E 
C'est drôle, tu es partie, 
                           A B     
Et pourtant tu es encore ici, 
          F#m B E 
Puisque tout me parle de toi : 
      C#m F#m B C#m       
Un parfum de femme, l'écho de ta voix. 
        A E 
Ton adieu, je n'y crois pas du tout, 
                F#m B E 
C'est un au revoir, presqu'un rendez-vous... 


 E B E B   
Ça va pas changer le monde, 
 E B F#m 
Il a trop tourné sans nous. 
                C#m F#m B 
Il pleuvra toujours sur Londres...
 F#m B E B 
ça va rien changer du tout. 
 E B E B 
Qu'est-ce que ça peut bien lui faire, 
 E A 
Une porte qui s'est renfermée? 
                E 
On s'est aimés, n'en parlons plus, 
 F#m B E C 
Et la vie continue. 


 F C F C                     
Ça va pas changer le monde 
 F C Gm 
Que tu changes de maison. 
             Dm Gm C 
Il va continuer, le monde, 
 Gm C F C 
Et il aura bien raison. 
 F C F C 
Les poussières d'une étoile, 
 F Bb 
C'est Ça qui fait briller la voie lactée... 
                 F 
On s'est aimés, n'en parlons plus, 
 Gm C F C# 
Et la vie continue. 

 F# C# F# C# 
Ça va pas changer le monde, 
 F# C# G#m 
Ça va pas le déranger. 
               D#m G#m C# 
Il est comme avant, le monde, 
 G#m C# F# C# 
C'est toi seule qui as changé. 
 F# C# F# C# 
Moi, je suis resté le même, 
 F# B 
Celui qui croyait que tu l'aimais... 
                   F# 
c'était pas vrai, n'en parlons plus, 
 G#m C# F# 
Et la vie continue.

Cosa Linda Tabs by No Te Va Gustar

 Acordes
  Bm   G  F#  Em
e|-2-|-3-|-2-|-0-|
B|-3-|-3-|-2-|-0-|
G|-4-|-4-|-3-|-0-|
D|-4-|-5-|-4-|-2-|
A|-2-|-5-|-4-|-2-|
E|---|-3-|-2-|-0-|

Intro

  Bm                    G                                             F#
e|---7-10-9--7-10-9--7-----12-12-12--10-10-10--9-9-9---------------------|
B|--7-------------------8-----------------------------12-12-12--11-11-11-|
G|-7---------------------------------------------------------------------|
D|-----------------------------------------------------------------------|
A|-----------------------------------------------------------------------|
E|-----------------------------------------------------------------------|
                  Bm          | Bm                G
e|----------------------------|----------------------------|
B|----------------------------|----------------------------|
G|---------9-12-11-9----------|----------------------------|
D|-9-11-12-----------12~11~12-|----------------------------|
A|----------------------------|-7-7-7--5-5-5--4-4-4--2-4-5-|
E|----------------------------|----------------------------|
  F#                         Bm
e|-3~2~0-----------------------------(7)--|
B|-------3~2~0--------2--2~3--2------(7)--|
G|-------------3----3-----------4----(7)--|
D|----------------4-----------------------|
A|----------------------------------------|
E|----------------------------------------|

1)
Bm                       G
cosas buenas tiene el hombre
       F#                     Bm
que a veces no las sabe disfrutar
Bm                   G
y se amarga por las voces
       F#                     Bm
que le dicen que no puede progresar
Bm                G
y se siente lastimado
       F#                         Bm
por lo poco que le importa a los demas
Bm                 G
y se siente defraudado
Em                   F#
si no tiene a quien juzgar

2)
Em    F#                Bm
cosa linda me trajo la vida
Em    F#         Bm
que no necesito mas
Em      F#              Bm
no le importa si tengo plata o si no
Em              F#
y no deja de cantar


1)
quiere estar en la ventana
y le dice al que sea dejame bailar
que le preste la guitarra
y no sabe la alegria que me da

2)
cosa linda me trajo la vida
que no necesito mas
no le importa si tengo plata o si no
y no deja de cantar

repite intro

Well Meet Again chords Va Lynn V3

 D F# Bm Gm 
We'll meet again, don't know where, don't know when,

         Em Em G A A/E A D Fdim Em A  
But I'm sure  we'll meet again some sun - ny day.


 D F# Bm Gm 
Keep smiling through, just like you always do

         Em Em G A A D G D 
'Til the blue skies chase the dark clouds far  a - way.




 D F# G F# 
 So will you please say "Hello" to the folks that I know

           G 
Tell them I won't be long,

 G E E E E 
They'll be happy to know that when you saw me go

        A G A/C# A 
I was sing - ing  this song.



 D F# Bm Gm 
We'll meet again, don't know where, don't know when,

         Em G A Em A D G D A D D 
But I'm sure  we'll meet again some sun - ny day.