Tag: Vibrato

Carol Tabs by Snorri Helgason

 ----------------------------------------------------------------
                             CAROL - Snorri Helgason
----------------------------------------------------------------
: Bowen Jones
 jonesb93

Tuning: Standard
CAPO V

e|-------5-------2------------0-----------0-------------|
B|--5/7----7\-3----3------------0-------0---------------|
G|--------------------------0---------------------------|
D|--0-------0---------0-0h2-------2---0-----------------|
A|------------------------------------------------------|
E|----------------------------------0-------------------|

e|-------5-------2------------0-------------------------|
B|--5/7----7\-3----3------------0--------0--------------|
G|--------------------------0-----------0---------------|
D|--0------0----------0-0h2-------2---------------------|
A|-----------------------------------------2-1----------|
E|----------------------------------0-------------------|

e|-------------------------------------3-------------------|
B|--2--------2-2--------2--------0h1p0---------------------|
G|----2----------2-------------0----------0----------------|
D|------2--2-------2--2-------2-------------0--------------|
A|--0----------0-------------------------------------------|
E|-------------------------0h3-----------------------------|

e|-------5-------2--------------------------------------|
B|--5/7----5\-3----3--------2--------2--------2----2----|
G|----------------------0h2---2--0h2---2--0h2---2-------|
D|--0-------0-------------------------------------------|
A|----------------------0--0-0-0-0--0-0-0-0--0-0-0-0----|
E|------------------------------------------------------|


************************************

| /   slide up
| \   slide down
| h   hammer-on
| p   pull-off
| ~   vibrato
| +   harmonic
| x   Mute note
| b   Bend
| pb  Pre-bend
| br  Bend release
| pbr Pre-bend release
| brb Bend release bend

************************************

Josies Song chords – William Fitzsimmons

 ----------------------------------
Josie´s Song - William Fitzsimmons
----------------------------------

:pink92panther
kevin.parmentier@ews-ac.de

Tuning:Standard
Capo: 4th
Chords:

   ( F )    Em    
e|--0----0----0-----------------------------------------------------------|
B|--1----0----0-----------------------------------------------------------|
G|--0----0----0-----------------------------------------------------------|
D|--2(h)-2----0-----------------------------------------------------------|
A|--3----2----0-----------------------------------------------------------|
E|--3----0----2-----------------------------------------------------------|

Lyrics:

MEASURE

Though I'm not the one who made
The body and the blood
I won't let you down
There's an elemental bond
In us that won't be found
But you're in my heart

I can hear the sound of rain
Falling through the floor
There's a quality of pain
For you she will endure
That measures out her

Love

When you wade in water wide
Without a map to steer
I will comfort you
When you find the other side
I will still be here
To measure out my love...


************************************

| /   slide up
| \   slide down
| h   hammer-on
| p   pull-off
| ~   vibrato
| +   harmonic
| x   Mute note
| b   Bend
| pb  Pre-bend
| br  Bend release
| pbr Pre-bend release
| brb Bend release bend

************************************

Ho-hum Tabs by Pinback

 -------------------------------------------------------------------------------
                             Ho HUM - Pinback
-------------------------------------------------------------------------------
: Justin
sdjustinr

Tuning: drop D (D A D G B E)

Note: Not 100% (not even 80%) but this is how I play it and it sounds good to me  Enjoy.


"You need to fuckin' get down here!"


    |       |        |       |
e|--------------------------------------|
B|------3-------3----------------------.|
G|--------4-------3----0----------------|
D|----4-------3----------4---5p4---4----|
A|--2-------1--------------5-----5-----.|
E|-------------------0------------------|


   "It's a fact, I know it.."




     |     |     |     |
e|------------------------------|
B|------3-----2-----8-----8----.|
G|------4-----2-----9-----9-----|
D|------4-----4-----9--7--9-----|
A|---2-----0-----7-------------.|
D|------------------------------|

   "No one's gonna take the pair..."


      |       |       |       |
e|----------------------------------------|
B|----------------------------------------|
G|----------------------------------------|
D|--------0h7-----0h7-----0h7-------------|
A|------5-------5-------5-------5-4h5p4---|
E|----0-----------------------------------|



     |       |       |       |
e|------------------------------------|
B|---------------------------0-0-0---.|
G|---------------------------0-0-0----|
D|---4-4-4-4-4-5-9\7-4-4-4---4-4-4----|
A|---0-0-0-0-0-------2-2-2-----------.|
D|---0-0-0-0-0-------2-2-2---5-5-4----|


   "I want to breathe in blue"




************************************

| /   slide up
| \   slide down
| h   hammer-on
| p   pull-off
| ~   vibrato
| +   harmonic
| x   Mute note
| b   Bend
| pb  Pre-bend
| br  Bend release
| pbr Pre-bend release
| brb Bend release bend

**********************************

Mind Control Tabs by Harms Way

 -------------------------- Mind Control – Harms Way----------------------------
: RapingZombies
Tuning: Drop  B (B Gb B E Ab Db)
Email: mario1@live.com.au   Email me if you see any mistakes so I can fix them.

Key:
| /  slide down
| ~  vibrato
| *  harmonic
| . palm mute

Intro 
Db|------------------------------------------------------|
Ab|------------------------------------------------------|
E |------------------------------------------------------|     
B |-4----0----------------------------444455554444-------|
Gb|-4----0--------555566665555---------------------------|
B |-4----0-----------------------------------------------| X4 
on the 4th time instead of 4 5 4 do this:

Db|--------------------------------------|
Ab|--------------------------------------|
E |--------------------------------------|     
B |--------------------------------------|
Gb|---5-6-5-------4---7---3---4---1---3--|
B |-----------7---4---7---3---4---1---3--|
                  .   .   .   .   .   .   
 
Db|--------------------------------------------------|
Ab|--------------------------------------------------|
E |--------------------------------------------------|     
B |---0-----------0-----------0----------------------|
Gb|0--0-----0--0--0-----0--0--0------0---5-6-5-------|
B |0--0-----0--0--0-----0--0--0------0-----------7---|
   .        .  .        .  .         .
Db|----------------------------------------|
Ab|----------------------------------------|
E |----------------------------------------|     
B |---0-----------0------------------------|
Gb|0--0-----0--0--0------555566665559999---|
B |0--0-----0--0--0------------------------|
   .        .  .             
Db|-------------------------------------------------|
Ab|-------------------------------------------------|
E |-------------------------------------------------|     
B |---0-----------0-----------0---------------------|
Gb|0--0-----0--0--0-----0--0--0------0---5-6-5------|
B |0--0-----0--0--0-----0--0--0------0-----------7--|
        .            .     .             .   .               .
Db|---------------------------------------------|
Ab|---------------------------------------------|
E |---------------------------------------------|     
B |---0-----------0-------------------44445555--|
Gb|0--0-----0--0--0------55556666---------------|
B |0--0-----0--0--0-----------------------------|
   .        .  .             


Db|----------------------------------------------------|
Ab|----------------------------------------------------|
E |----------------------------------------------------|     
B |---0-----------0-----------0------------------------|
Gb|0--0-----0--0--0-----0--0--0------0---5-6-5---------|
B |0--0-----0--0--0-----0--0--0------0-----------7-----|
   .        .  .        .  .         .
Db|---------------------------------------|
Ab|---------------------------------------|
E |---------------------------------------|     
B |---0-----------0-----------------------|
Gb|0--0-----0--0--0------555566665559999--|
B |0--0-----0--0--0-----------------------|
   .        .  .             
Db|--------------------------------------------------------|
Ab|--------------------------------------------------------|
E |--------------------------------------------------------|     
B |---0-----------0-----------0----------------------------|
Gb|0--0-----0--0--0-----0--0--0------0---5-6-5-------------|
B |0--0-----0--0--0-----0--0--0------0-----------7---------|
   .        .  .        .  .         .

Db|----------------------------------|
Ab|----------------------------------|
E |----------------------------------|     
B |---0-----------0------------------|
Gb|0--0-----0--0--0------------------|
B |0--0-----0--0--0----0-------------|
   .        .  .  

Db|---------------------------------------------------------------|
Ab|---------------------------------------------------------------|

One Hundred Years From Now Ill Be Crawling From My Tomb Tabs by Gas Up Yr Hearse

 -----------------------------------------------------------------------------
one Hundred Years From Now I'll Be Crawling From My Tomb - Gas Up Yr Hearse!
-------------------------------------------------------------------------------
: Gmemberkills
 Drop D

Tuning:

e|---------------------------------------------------------------------------|
B|---------------------------------------------------------------------------|
G|---------------------------------------------------------------------------|
D|0----1----5--0---------2--1-0-1--------------------------------------------|
A|0-ph-1-s--5--0---------2--1-0-1------x2------------------------------------|
D|0----1----5--0---------2--1-0-1--------------------------------------------|

e|---------------------------------------------------------------------------|
B|---------------------------------------------------------------------------|
G|---------------------------------9--8--7--9--------------------------------|
D|---2--1-0-1----------------------x--x--x--x--------------------------------|
A|---2--1-0-1----------------------7--6--5--7--------------------------------|
D|---2--1-0-1----------------------------------------------------------------|
Strum this fast, then break into

e|---------------------------------------------------------------------------|
B|--------4------------------------------------------------------------------|
G|--------7------------------------------------------------------------------|
D|--000----------------------------------------------------------------------|
A|pm000----------------------------------------------------------------------|
D|--000----------------------------------------------------------------------|

Then for the end use pretty much open pm chugs along with the 4 an 7 in rhythm to the song
************************************

| /   slide up
| \   slide down
| h   hammer-on
| p   pull-off
| ~   vibrato
| +   harmonic
| x   Mute note
| b   Bend
| pb  Pre-bend
| br  Bend release
| pbr Pre-bend release
| brb Bend release bend

Marbles Tabs by John Mclaughlin

 -------------------------------------------------------------------------------
                Marbles (Main Guitar Lead with Bass line) - John McLaughlin
-------------------------------------------------------------------------------

Tunings: Both Standard E:    E-A-D-G-B-e    &    E-A-D-G 
                            (G u i t a r)  and  (B a s s)


Notes: Main Guitar Line only from 01:39 to 03:37
      (Bass Line included purely for orientation)


Opening Chords:
e|--0--|        e|-(0)-|        e|--0--|
B|--3--|        B|--2--|        B|--0--|
G|--6--|        G|--4--|        G|--2--|
D|--7--|        D|--5--|        D|--3--|
A|--7--|        A|--5--|        A|--4--|
E|--0--|        E|--0--|        E|--0--|


Tab Notation:
  /   slide up
  \   slide down
  h   hammer-on
  p   pull-off
  ~   vibrato
  B   Bend
  R   Release
  >   Accented Note
  .   Staccato


      ...(1 minute and 39 seconds into the song)...
Count:    1   e   &   a     2   e   &   a     3   e   &   a     4   e   &   a      
G   e||------------------|-----------------|-----------------|------------------|  \
u   B||------------------|-----------------|-----------------|------------------|   \
i   G||------------------|-----------------|-----------------|------------------|   |
t   D||------------------|-----------------|-----------------|------------------|   |
a   A||------------------|-----------------|-----------------|------------------|   |
r   E||---1---1----------|--1--(..slow..full..bend..and..release..)-------------|   |
                                                                                |   |
                                                                                |   |
B   G||------------------|-----------------|-----------------|------------------|   |
a   D||------------------|-----------------|-----------------|------------------|   | 
s   A||------------------|----------2------|-----------------|------------------|   |
s   E||---1-------2------|--4--------------|----------4------|--2-------1-------|   | 
                                                                                    |
                                                                                     > Bar No: 01.
                                                                                    |
Count:    1   e   &   a     2   e   &   a     3   e   &   a     4   e   &   a       |
G   e||------------------|-----------------|-----------------|------------------|   |
u   B||------------------|-----------------|-----------------|------------------|   |
i   G||------------------|-----------------|-----------------|------------------|   |
t   D||------------------|-----------------|-----------------|------------------|   |
a   A||------------------|-----------------|-----------------|------------------|   |
r   E||---1-h-2-------2--|--1-h-2-------2--|--1---1-------1--|--1---1-------1---|   |
                                                                                |   |
                                                                                |   |
B   G||------------------|-----------------|-----------------|------------------|   |
a   D||------------------|-----------------|-----------------|------------------|   |
s   A||------------------|----------2------|--4-------2------|------------------|   /
s   E||-----------2------|--4--------------|-----------------|--4-------2-------|  /




Count:    1   e   &   a     2   e   &   a     3   e   &   a     4   e   &   a      
G   e||------------------|-----------------|-----------------|------------------|  \
u   B||------------------|-----------------|-----------------|------------------|   \
i   G||------------------|-----------------|-----------------|------------------|   |
t   D||------------------|-----------------|-----------------|------------------|   |
a   A||------------------|-----------------|---------------

The Hand That Rocks The Cradle Tabs by Smiths V3

 -------------------------------------------------------------------------------
THE HAND THAT ROCKS THE CRADLE (TROY TATE VERSION) - The Smiths
-------------------------------------------------------------------------------
: OrangeTrousers

Tuning: Standard, with capo on 2nd fret

The Song; http://www.youtube.com/watch?v=6TlWCbvPiDk

The Chords: G6, Cadd9, Dsus2


e|-----------------|-----------------|
B|-3-3-x-3---3-----|-----1p0-----0h1-|
G|-0-0-x-0---0-4p0-|---0-----2-------|
D|-0-0-x-0---0-----|---------0-0-----|
A|-----------------|-3---------------|
E|-----------------|-----------------|

e|-----------------|-----------------|
B|-3-3-x-3---3-----|-----1-----3-0---|
G|-0-0-x-0---0-4p0-|-----0-----0-----|
D|-0-0-x-0---0-----|---2-------------|
A|-----------------|-3-------5-------|
E|-----------------|-----------------|


************************************

| /   slide up
| \   slide down
| h   hammer-on
| p   pull-off
| ~   vibrato
| +   harmonic
| x   Mute note
| b   Bend
| pb  Pre-bend
| br  Bend release
| pbr Pre-bend release
| brb Bend release bend

************************************

Battle Born intro Tabs by Five Finger Death Punch

 The Wrong Side of Heaven and the Righteous Side of Hell, Volume 2
 
Email: juliandavidsalamancamora@gmail.com

First single from the second volume.
tabbed by: ju.da.sguitar

Song: battle born
Band : five finger death punch 

B tuning 

clean guitar
main Riff
verse riff 


B ||-------------0-----------|------------0------------|
F#||----------4----4---------|---------4----4----------|
D ||-------6---------6--(x4)-|------6----------6-(x4)--|
A ||-------------------------|-------------------------|
E ||---0---------------------|--4----------------------|
B ||-------------------------|-------------------------|


soon the whole song :) i hope to enjoy 

Tablature Legend
----------------
L - tied note
x - dead note
g - grace note
(n) - ghost note
> - accentuded note
NH - natural harmonic
AH - artificial harmonic
TH - tapped harmonic
SH - semi harmonic
PH - pitch harmonic
h - hammer on
p - pull off
b - bend
br - bendRelease
pb - preBend
pbr - preBendRelease
brb - bendReleaseBend
\n/ - tremolo bar dip
\n - tremolo bar dive
-/n - tremolo bar Release up
/n\ - tremolo bar inverted dip
/n - tremolo bar return
-\n - tremolo bar Release down
S - shift slide
s - legato slide
/ -  slide into from below or out of upwards
\ -  slide into from above or out of downwards
~ - vibrato
W - wide vibrato
tr - trill
TP - tremolo picking
T - tapping
S - slap
P - pop

Last Man On Earth intro Tabs by Michale Graves

 -------------------------------------------------------------------------------
                             LAST MAN ON EARTH - Michale Graves
-------------------------------------------------------------------------------
Tabbed by: Erwin Fletcher
E-mail: killstacy@gmail.com

Tuning: Standard

Really simple but it sounds complex. A lot of hammer-ons/Pull offs. Repeat it a
few times and thats the into, Then theres some power chords, and then you play
this again for the Chorus.

e|----------------------------------------------------------------------------- |
B|----------------------------------------------------------------------------- |
G|----------------------------------------------------------------------------- |
D|-7h5p7---5h3p5h3p5h3p6-3-3-1-3-6-6-3----------------------------------------- |
A|----------------------------------------------------------------------------- |
E|----------------------------------------------------------------------------- |

************************************

| /   slide up
| \   slide down
| h   hammer-on
| p   pull-off
| ~   vibrato
| +   harmonic
| x   Mute note
| b   Bend
| pb  Pre-bend
| br  Bend release
| pbr Pre-bend release
| brb Bend release bend

************************************

Diamond Lightning intro Tabs by Minus The Bear

 (/) Slide Up  (\) Slide Down  (h) Hammer On  (p) Pull Off  (b) Bend (r) Release (v) Vibrato


E|--0-----------------------0(h)4(p)0-|
B|-----2------------------------------|
G|-----------4--1---------------------|
D|--------------------4---------------|
A|--------0---------------------------|
D|-----------------2-----0------------|

Drop D tuning

Use the 0 in the last pull off to start the intro over again

Created by Shane Leedham

Misc Metal Riff intro Tabs

 -------------------------------------------------------------------------------
                             Misc. Metal Riff
-------------------------------------------------------------------------------
Tabbed by: Andrew

Email: Andrew26nol@gmail.com

Tuning: Drop C

Just some random metal riff I started playing. Sounded pretty cool.
It would be sick as hell if you guys out there want to just add on or somthing and as a 
metal guitarist we
create a collab of just a bunch of sweet tabs we put together, so if you got anything to 
add that you can come
up with email it to me and then post it on UG.

d|---------------------------------------------------------------------------|
A|---------------------------------------------------------------------------|
F|---------------------------------------------------------------------------|
C|---------------------------------------------------------------------------|
G|--8-7--10-8-(7)7h8p7---8-7--10-8-(7)7h8p7----------------------------------|
C|00-0-00--0-0---------00-0-00--0-0------------------------------------------|
  ** * **  * * *       ** * **  * * *
d|---------------------------------------------------------------------------|
A|---------------------------------------------------------------------------|
F|---------------------------------------------------------------------------|
C|-------------------------------------7h10p7--------------------------------|
G|--10-7--8-7-(7)7h8p7-----10--10------------7h10p7--------------------------|
C|88--8-88-8-8---------1010--10--101077--------------------------------------|
  **  * ** * * *       * *   *   * * **

***Those are 10's, not 1's and 0's***

************************************

| /   slide up
| \   slide down
| h   hammer-on
| p   pull-off
| ~   vibrato
| *   Palm Mute
|(n)  Optional Note

************************************

Final Fantasy Ix – Pandemonium The Castle Frozen In Time Tabs

 This is my first ASCII tab, I hope you like it. (The bars are sorted by number) 
The Bar numbering might be jumbled with the chord names.

Game - Final Fantasy IX
Composer - Nobuo Uematsu
Time Signature - 4/4 
Tempo - Quarter Note = 70 (70bpm)
Tuning - Standard E (EADGBE)

DmM7 = Dm (maj 7)

Legend
L - Tied note
x - Dead note
h - Hammer on/Pull off
b - Bend
s - Slide
~ - Vibrato
g - Ghost note
> - Accentuated note
t - Trill
M - Palm mute
. - Staccato
P - Popping (Bass)
S - Slapping (Bass)
+ - Tapping
W - Wide vibrato

Hell Night Tabs by Misfits V2

 -------------------------------------------------------------------------------
                             Misfits - Hell Night
-------------------------------------------------------------------------------
Tabbed by:Subligar
Here's a proper tab tuned a half step down like it should be.
Listen to the song for the rhythm, especially the start of the verse and middle of the chorus.
The whole song should probably be downstrums(if you are a monster), but the Pre-
Chorus needs the heavy hits.

Tuning: 1/2 step down

Intro
eb|-----------:-----------------|
Bb|-----------:-----------------|
Gb|-----------:-----------------|
Db|-----------:-----------------|
Ab|9999999\7/-:---\4-4-4-5-5-7--|
Eb|7777777\5/-:---\2-2-2-3-3-5--|
    repeat 7x- then big slide to
Verse
eb|-----------:-----------------|
Bb|-----------:-----------------|
Gb|-----------:-----------------|
Db|-----------:-----------------|
Ab|9999999\7/-:---\4-4-4-5-5-7--|
Eb|7777777\5/-:---\2-2-2-3-3-5--|
    repeat 3x

Pre-Chorus  only downstrums
eb|---------------------------------|
Bb|---------------------------------|
Gb|---------------------------------|
Db|---------------------------------|
Ab|7-7-7-7-7-7-7\5/7-7-7-7-7-7-7-7--|
Eb|5-5-5-5-5-5-5\3/5-5-5-5-5-5-5-5--|

Chorus      Hell night, Whoa
eb|-------------------------------------|
Bb|-------------------------------------|
Gb|-------------------------------------|
Db|7-777777------7----------------------|
Ab|5-555555-7-77-5-7-5-555555-7-777777--|
Eb|---------5-55---5-3-333333-5-555555--|

End
eb|----------:------|
Bb|----------:------|
Gb|----------:------|
Db|----------:------|
Ab|9999999\7/:9--9--|
Eb|7777777\5/:7--7--|
   repeat 4x

Order:

Intro
Verse
Pre-Chorus
Chorus-4x
Verse-2x
Pre-Chorus
Chorus-4x
Verse-2x
Pre-Chorus
Chorus-6x
End

************************************

| /   slide up
| \   slide down
| h   hammer-on
| p   pull-off
| ~   vibrato
| +   harmonic
| x   Mute note
| b   Bend
| pb  Pre-bend
| br  Bend release
| pbr Pre-bend release
| brb Bend release bend

************************************

Conversation Over Tabs by Halestorm

 This song could possibly be in Drop C# but it would be pointless
to tune to it because the open C# is not used in the song!
All my other Halestorm tabs are in Drop D and
this tab sounds great in it as well.

s = slide
/s/ = slide out/down the neck
h = hammer-on
v = vibrato
b = bend
br = bend then release

Intro (0:00)(not palm-muted) and Verse (0:14)(palm-muted)
e|--------------------------------------------------------------------------|
B|--------------------------------------------------------------------------|
G|--------------------------------------------------------------------------|
D|--------------------------------------------------------------------------|
A|-6-6--4-4-4--6-6-6--4--9-9------------------------------------------------|
D|-6-6--4-4-4--6-6-6--4--9-9------------------------------------------------|

Pre-Chorus (0:27)(Comes in from the verse:)
e|--------------------------------------------------------------------------|
B|--------------------------------------------------------------------------|
G|--------------------------------------------------------------------------|
D|-----------------6-8-9-8------6-8-9-8-------------------------------------|
A|-6-6--4-4-4--6-6----------6-6-----------6-6-------------------------------|
D|-6-6--4-4-4--6-6----------6-6-----------6-6-------------------------------|
   PM-------|

Chorus Rhythm (0:33)
e|--------------------------------------------------------------------------|
B|--------------------------------------------------------------------------|
G|--------------------------------------------------------------------------|
D|--------------------------------------------------------------------------|
A|-22222222-44444444-66666666-99998888--------------------------------------|
D|-22222222-44444444-66666666-99998888--------------------------------------|

Chorus Lead I (0:33)
e|--------------------------------------------------------------------------|
B|--------------------------------------------------------------------------|
G|--------------------------------------------------------------------------|
D|-4s6-6-6-6s4-4-4-4s9-9-9-9s11-11-11---------------------------------------|
A|--------------------------------------------------------------------------|
D|--------------------------------------------------------------------------|

Chorus Lead II (0:36)
e|--------------------------------------------------------------------------|
B|--------------------------------------------------------------------------|
G|--------------------------------------------------------------------------|
D|-4s6-6-6-6s4-4-4-4s6-6-6-6s4-4s9------------------------------------------|
A|--------------------------------------------------------------------------|
D|--------------------------------------------------------------------------|

(0:47) Play Intro Once

Break Rhythm (0:50)(Just chugging this G#5 chord)
e|--------------------------------------------------------------------------|
B|--------------------------------------------------------------------------|
G|--------------------------------------------------------------------------|
D|-6------------------------------------------------------------------------|
A|-6------------------------------------------------------------------------|
D|-6------------------------------------------------------------------------|
 PM--|

Break Lead (0:50) (Tricky, listen for timing and add some vibrato)
Get Out!
e|--------------------------------------------------------------------------|
B|--------------------------------------------------------------------------|
G|-15-13--13-13-13-----15-13--13-13-13--------------------------------------|
D|--------------------------------------------------------------------------|
A|--------------------------------------------------------------------------|
D|-----------------------------------------------------------------------

Hanya Kau Yang Mampu solo Tabs by Aizat Af5

 AIZAT AF5 - Hanya Kau Yang Mampu (solo)



Key:

^  - bend
^^ - full bend
h  - hammer on
p  - pull off
r  - release bend
/  - slide down
\  - slide up
~  - vibrato
() - finger tap




      G#m    C#m
Aku cinta oohhhhhh...



SOLO:

         E                 B                G#m              C#m
e|-----------------------------------------------------------------------|
B|-----------------------------------------------------------------------|
G|--9-11-13~------13/14-13-13-14-11~----8-9-11~--13/14-13-11-11-13-9~----|
D|-------------11--------------------------------------------------------|
A|-----------------------------------------------------------------------|
E|-----------------------------------------------------------------------|


    A           E              G#m             C#m
e|-----------------------------------------12--14~----11-9-11~--------|
B|---------------------------------12--14-----------------------------|
G|-----------13--------14--13--14-------------------------------------|
D|-----11-14----11~---------------------------------------------------|
A|--12----------------------------------------------------------------|
E|--------------------------------------------------------------------|


      A
Harusnya takkan...



Guitar Tabs by rizalwahap

Jet Silver And The Dolls Of Venus Tabs by Be Bop Deluxe V2

 -------------------------------------------------------------------------------
Jet Silver And the Dolls Of Venus - Be Bop Deluxe
-------------------------------------------------------------------------------

Tabbed by: axe victim


Leave a message on my  ‘Ultimate Guitar’  profile or comment
here and I’ll get back to you.

Tuning: EADGBe

| /  slide up
| \  slide down
| s  slur ( very rapid slide, sounds like one note! )
| h  hammer-on
| p  pull-off
| ~  vibrato or sustain
| b  bend
| r  relax bend
| pb pre-bend note to pitch
| ^  Whammy bar
| +  harmonic
| x  Mute note
|(0) optional note



A favourite song from the incredible Axe Victim album, also covered by 
Jason Falkner.  



Intro: ( acoustic Guitar rhythm chords shown in brackets ) 


___D_(xx0232)______A/D_(xx0655)_____G/D_(xx0433)____________A/D_(xx0655)_

e|12b14r12-10---------------------|--------------------------------|
B|-------------10-----------------|--------------------------------|
G|----------------11b12r11b12r11~-9h11p9p7h9-11p9p7-----7---9------|
D|--------------------------------|-----------------7h9------------|
A|--------------------------------|--------------------------------|
E|--------------------------------|--------------------------------|

 | 1 - & - 2 - & - 3 - & - 4 - & -| 1 - & - 2 - & - 3 - & - 4 - & -|



___D_______________A/D______________G/D_____________________A/D______D_
                                       ( s = slur: very rapid slide )
e|12b14r12-10---------------------|--------------------------------|---
B|-------------10-----------------|--------------------------------|---
G|-----------------11b12r11b12r11~9h11p9p7h9-11p9p7----------------|---
D|--------------------------------|----------------7h9p7-----------|---
A|--------------------------------|----------------------9s7p5h7p5h7p5~~
E|--------------------------------|--------------------------------|---




Verse:

___D_______________A/D______________G/D_____________________A/D____
" Out across the heavens when you're sleeping in your bed,"
e|-2-------2-------5-------5------|-3-------3-------3-------5------|
B|-3-------3-------5-------5------|-3-------3-------3-------5------|
G|-2-------2-------6-------6------|-4-------4-------4-------6------|
D|-----0-------0-------0-------0--|-----0-------0-------0-------0--|
A|--------------------------------|--------------------------------|
E|--------------------------------|--------------------------------|
( Lead guitar... )
e|--------------------------------|--------------------------------|
B|--------------------------------|--------------------------------|
G|--------------------------------|--------------------------------|
D|--------------------------------|--------------------------------|
A|-5~~~~~~~~~~~~~~~~~~~~~~~~~~~~~~~~~~~~~~~~~~~~~~~~~~~~~~~~~~~~~\-|
E|--------------------------------|--------------------------------|



___D_______________A/D______________G/D____________________________
 " Someone turns a light on, can you feel it burn inside    your... "
e|-2-------2-------5-------5------|-3-------3-------3-------3------|
B|-3-------3-------5-------5------|-3-------3-------3-------3------|
G|-2-------2-------6-------6------|-4-------4-------4-------4------|
D|-----0-------0-------0-------0--|-----0-------0-------0-------0--|
A|--------------------------------|--------------------------------|
E|--------------------------------|--------------------------------|
( Lead guitar... )
e|--------------------------------|--------------------------------|
B|-3------------------------------|--------------------------------|
G|-2------------------------------|--------------------------------|
D|-0------------------------------|--------------------------------|
A|--------------------------------|--------------------------------|
E|--------------------------------|--------------------------------|



___Fm_________________

Kvelertak intro Tabs by Kvelertak

 (/) Slide Up (v) Vibrato

Chord progression, modify as needed for the rest of the song

E|----------------------------------------------|
B|----------------------------------------------|
G|----------------7--7-------------------7--7---|
D|--9----9--9--9--7--7--5--5----5--5--5--7--7---|
A|--9----9--9--9--5--5--5--5----5--5--5--5--5---|
E|--7----7--7--7--------3--3----3--3--3---------|

------------------------------------------------|
------------------------------------------------|
--------------------7--7----------------7----9--|
---7--7----7--7--7--7--7--5--5----5--5--7----9--|  repeat from start
---7--7----7--7--7--5--5--5--5----5--5--5----7--|
---5--5----5--5--5--------3--3----3--3----------|



Solo over chords

E|---------------------------------------------|
B|---------------------------------------------|
G|---------------------------------------------|
D|-----------7--7--7/9v-----------7--9--9/11v--|
A|------7/9-----------------7/9----------------|
E|--10------------------10---------------------|

-----------------------------------------------|
-----------------------------------------------|
-----------------------------------------------|
----------7-----9/12--9--7--9------------------|
-7--7/9-----9------------------9--7--9--10--9v-|
-----------------------------------------------|

Percaya Padaku solo Tabs by Ungu

 UNGU - Percaya Padaku (intro & solo)


Key:

^  - bend
^^ - full bend
h  - hammer on
p  - pull off
r  - release bend
/  - slide down
\  - slide up
~  - vibrato
() - finger tap





INTRO:


     A                             E
e|---------------------------------------------------------|
B|---------------------------------------------------------|
G|-----------9----9----9-----------------------------------|
D|--6/7--7-7-7--X-7--X-7-------------------9----9----9-----|
A|--------------------------------5/7--7-7-7--X-7--X-7-----|
E|---------------------------------------------------------|


     F#                               D
e|--------------------------------------------------------------|
B|--------------------------------------------------------------|
G|--------------------------------------------------------------|
D|-----------11----11----11-------------------7----7----7-------|
A|--7/9--9-9-9---X-9---X-9-----------4/5--5-5-5--X-5--X-5-------|
E|--------------------------------------------------------------|


Play above twice.




SOLO:


              A                         A
e|----------------------------------------------------|
B|----------------------------------------------------|
G|--14-14-14-14\9--9-9--------14-14-14-14\9--9-9------|
D|----------------------------------------------------|
A|--12-12-12-12\7--7-7--------12-12-12-12\7--7-7------|
E|----------------------------------------------------|


              E                            E
e|----------------------------------------------------------|
B|----------------------------------------------------------|
G|--14-14-14-14\13--13-13--------14-14-14-14\13--13-13------|
D|----------------------------------------------------------|
A|--12-12-12-12\11--11-11--------12-12-12-12\11--11-11------|
E|----------------------------------------------------------|


             F#                           F#
e|----------------------------------------------------------|
B|----------------------------------------------------------|
G|--16-16-16-16\14--14-14--------16-16-16-16\14--14-14------|
D|----------------------------------------------------------|
A|--14-14-14-14\12--12-12--------14-14-14-14\12--12-12------|
E|----------------------------------------------------------|


              D                            D
e|---------------------------------------------------------|
B|---------------------------------------------------------|
G|--19-19-19-19\16--16-16--------19-19-19-19\16--16-16-----|
D|---------------------------------------------------------|
A|--17-17-17-17\14--14-14--------17-17-17-17\14--14-14-----|
E|---------------------------------------------------------|


Play above twice then end with below...


              A
e|----------------------|
B|----------------------|
G|--14-14-14-14---------|
D|----------------------|
A|--12-12-12-12---------|
E|----------------------|




Guitar Tabs by rizalwahap

Sometimes I Wish solo Tabs by City And Colour

 -------------------------------------------------------------------------------
                             Sometimes (I Wish) - City & Colour
-------------------------------------------------------------------------------
Tabbed by: ColoursBleed
E-mail: chaxter123@gmail.com

Tuning: Standard Tuning capo on 6th Fret

e|---------------------------------------------------------------------------|
B|-------------------------------3-2--------3-2-------------3-2--------------|
G|----------2-----------2---2h4------2----------2-------2-4-----2---------2--|
D|----2h4-4---4---2h4-4---4------------4----------4-2-4-----------4-2h4-4----|
A|---------------------------------------------------------------------------|
E|---------------------------------------------------------------------------|

e|----------------------------------------------------22-0-------------------|
B|--------------------3-2-------3---3-2--------3-2---------3-2---------------|
G|----2---2---2h4-4-------2-2h4---4-----2--2h4-----2-----------2-------------|
D|--4---4---4----------------------------------------------------4p2p0-2-4---|
A|---------------------------------------------------------------------------|
E|---------------------------------------------------------------------------|

e|---------------------------------------------------------------------------|
B|----------3-2--------------------------------------------------------------|
G|--2---2h4-----2-------2----------------------------------------------------|
D|----4-----------4-2-4---4--------------------------------------------------|
A|---------------------------------------------------------------------------|
E|---------------------------------------------------------------------------|


************************************

| /   slide up
| \   slide down
| h   hammer-on
| p   pull-off
| ~   vibrato
| +   harmonic
| x   Mute note
| b   Bend
| pb  Pre-bend
| br  Bend release
| pbr Pre-bend release
| brb Bend release bend

************************************

My Questions Tabs by The Devil Wears Prada V2

 Legend:

~ = Let Ring               / = Slide Up

pm = Palm Mute             \ = Slide Down

x = Dead Note              h = Hammer-On

p = Pull-Off               t = Tremelo Pick

1st Verse (0:14-0:47)

Rhythm
                                               (the 5 and 7 may have a slight bend or vibrato)
e|----------------------------------------------------------------------------------| play 2x
B|----------------------------------------------------------------------------------|
G|----------------------------------------------------------------------------------|
D|----------------------------------------------------------------------------------|
A|-0-0-----0-0---------0-0-0--0-0-0--------------0-0-----0-0------------------------|
E|-0-0-----0-0---------0-0-0--0-0-0--------------0-0-----0-0-----------5--------7---|
 pm. .     . .         . . .  . . .              . .     . .

Lead

e|------------/12--------------------/17-17\----------------/13-12----15----17-17\--| play 2x
B|---6-----------13-10-------6----------------------6--------------13----13---------|
G|-7---7-------------------7---7---------15\------7---7------------------------15\--|
D|----------------------------------------------------------------------------------|
A|----------------------------------------------------------------------------------|
E|----------------------------------------------------------------------------------|

Rhythm
                                    (the 5 and 7 may have a slight bend or vibrato)
e|----------------------------------------------------------------------------------| play 2x
B|----------------------------------------------------------------------------------|
G|----------------------------------------------------------------------------------|
D|----------------------------------------------------------------------------------|
A|-0-0-0---0-0---------0-0-0--0-0-0--------------0-0-0---0-0------------------------|
E|-0-0-0---0-0---------0-0-0--0-0-0--------------0-0-0---0-0-----------5--------7---|
 pm. .     . .         . .    . . .              . .     . .

Lead

e|------------/12--------------------/17-17\----------------/13-12----15----17-17\--| play 2x
B|---6-----------13-10-------6----------------------6--------------13----13---------|
G|-7---7-------------------7---7---------15\------7---7------------------------15\--|
D|----------------------------------------------------------------------------------|
A|----------------------------------------------------------------------------------|
E|----------------------------------------------------------------------------------|

Rhythm
(after there palm mute there may be some quickly strummed dead notes, can't tell if
 it's guitar or not, listen to the song and let me know what you think in the comments)
e|-----------------------------------------------------|
B|-----------------------------------------------------|
G|-----------------------------------------------------|
D|-----------------------------------------------------|
A|---0~----------------------------0-------------------|
E|---0~----------------------------0-------------------|
                                 pm.
Lead

e|-----------------------------------------------------|
B|---6~--------5~--------8~--------8h10p8--------------|
G|---7~--------7~--------9~----------------9h10p9-7\---|
D|-----------------------------------------------------|
A|-----------------------------------------------------|
E|-----------------------------------------------------|

1st Chorus (0:48-1:01)

Rhythm
(strumming)
e|---------------------------------------------------------------------|
B|---------------------------------------------------------------------|
G|---------------------------------------------------------------------|
D|--8------------------------------0-----------------------------------|
A|--8------------------------------0-------