Tag: vincent

An All American Bluegrass Girl chords – Rhonda Vincent

 C 
Bill might be from Kentucky   Jimmy from Tennessee 

        F C G7 C 
I'm an all American bluegrass girl and proud as I can be


                                       F C 
Each day I greet the morning with the sounds of the radio

 F C G7 
Lester Flatt was singing on that Martha White show

     C F C 
Big K on the banjo Marty on the mandolin

        F C G7 C 
I'm an all American bluegrass girl and proud of where I've been


 F C 
Bill might be from Kentucky Jimmy from Tennessee

                                                         G7 
Though I might be from Missouri I'm as bluegrass as can be

   C F C 
A life of bluegrass music with friends and family

        F C G7 C 
I'm an all American bluegrass girl and proud as I can be

 
                                 F C 
All my life they told me you're pretty good for a girl

     F C G7 
Someday you'll play the Opry just like Sonny Bob and Earl

     C F C 
I'm livin' dreams I never dreamed mom and daddy they taught me right

          F C G7 C 
To be an all American bluegrass girl who's singin' here tonight

 
                                        F C 
Each day I greet the morning with the sounds of the radio

 F C G7 
Lester Flatt was singing on that Martha White show

     C F C 
Big K on the banjo Marty on the mandolin

        F C G7 C 
I'm an all American bluegrass girl and proud of where I've been


                                       F C 
Each day I greet the morning with the sounds of the radio

 F C G7 
Lester Flatt was singing on that Martha White show

     C F C 
Big K on the banjo Marty on the mandolin

        F C G7 C 
I'm an all American bluegrass girl and proud of where I've been

  
        F C G7 C 
I'm an all American bluegrass girl and proud as I can be

Aint That Love chords – Rhonda Vincent

 C G7 C 
I will always remember the first time that we met

                           F G7 C 
And the first time that I kissed your lips is a thing I won't forget

                                    G7 C 
The special way you held me is the way you hold me still

                            F G7 C 
And I knew right then that you loved me and I know you always will


                            G7 C 
Ain't that love ain't that how it's supposed to be

                      F G7 C 
When two hearts come together as one just like you and me

                 G7 C 
Ain't that love shining in your eyes

                  F G7 C 
Heaven sent from up above ain't that love


                           G7 C 
My grandma and my grandpa my momma and my dad

               F G7 C 
Didn't have a lot of things but love is what they had

                               G7 C 
Their love kept them together through the many years

                           F G7 C 
Though life was hard they shared it all through the laughter and the tears


                            G7 C 
Ain't that love ain't that how it's supposed to be

                      F G7 C 
When two hearts come together as one just like you and me

                 G7 C 
Ain't that love shining in your eyes

                  F G7 C 
Heaven sent from up above ain't that love


                          G7 C 
Baby you're the sunshine that brightens up my day

                   F G7 C 
And I will always stand by you darlin' come what may

                            G7 C 
And I will always love you to have and hold

                        F G7 C 
And I'll keep my every promises to you with this band of gold


                            G7 C 
Ain't that love ain't that how it's supposed to be

                      F G7 C 
When two hearts come together as one just like you and me

                 G7 C 
Ain't that love shining in your eyes

                  F G7 C 
Heaven sent from up above ain't that love


                  F G7 C 
Heaven sent from up above ain't that love

Because Of Him chords – Rhonda Vincent

 C 
I know I’ve been saved because of Jesus

                                   G7 
I know I’ve been saved because of Him

     F G7 C Am 
I’m glad He heard my plea He reached and set me free

   D7 G7 C 
I know I’ve been saved because of Him



Some people look at me and think I’m different

                                      G7 
Some people look at me and think I’m strange

     F G7 C F 
But I got something new that the world can’t undo

   G7 C 
I know I’ve been saved because of Him


 C 
I know I’ve been saved because of Jesus

                                   G7 
I know I’ve been saved because of Him

     F G7 C Am 
I’m glad He heard my plea He reached and set me free

   D7 G7 C 
I know I’ve been saved because of Him



Well it feels so good since I got this feeling

                                       G7 
And it feels so good since my faith I know

     F G7 C F 
I’m walking in the light since Jesus won the fight

   G7 C 
I know I’ve been saved because of Him

 
 C 
I know I’ve been saved because of Jesus

                                   G7 
I know I’ve been saved because of Him

     F G7 C Am 
I’m glad He heard my plea He reached and set me free

   D7 G7 C 
I know I’ve been saved because of Him


 C 
I know I’ve been saved because of Jesus

                                   G7 
I know I’ve been saved because of Him

     F G7 C Am 
I’m glad He heard my plea He reached and set me free

   D7 G7 C 
I know I’ve been saved because of Him


   G7 C 
I know I’ve been saved because of Him

   G7 C 
I know I’ve been saved because of Him

   G7 C 
I know I’ve been saved because of Him

   G7 C 
I know I’ve been saved because of Him

At The Corner Of Walk And Dont Walk chords – Rhonda Vincent

 C F 
I'm callin' from a pay phone I was headin' out of town

 G7 F G7 C 
I really Meant to leave this time but I guess I'm havin' doubts

                                    C7 F 
It's hard for me to walk away from all we could've had

    G7 C 
So I'm callin' just to tell you where I'm at


                                              C7 F 
I'm at the corner of walk and don't walk and I can't make up my mind

 G7 F G7 C 
One way leads me back to you and one leaves you behind

                                    C7 F 
I'm standin' at the crossroads and I'm really in some pain

        G7 F G7 C 
At the corner of walk and don't walk darlin' and the light's about to change


                                   F 
I'm hopin' that you'll tell me to turn my car around

 G7 F G7 C 
That you never meant to hurt me and you'll make things right somehow

                                         C7 F 
But the phone just keeps on ringin' and though my heart's had enough

   G7 C 
I just can't bring myself to hang it up


                                              C7 F 
I'm at the corner of walk and don't walk and I can't make up my mind

 G7 F G7 C 
One way leads me back to you and one leaves you behind

                                    C7 F 
I'm standin' at the crossroads and I'm really in some pain

        G7 F G7 C 
At the corner of walk and don't walk darlin' and the light's about to change


        G7 F G7 C 
At the corner of walk and don't walk darlin' and the light's about to change

Anywhere Is Home When Youre With Me chords – Rhonda Vincent

 G C G 
I spent some time in the hills of old Kentucky

      D7 G 
I've travelled south on down to Tennessee

                        C G 
I thought I found true love in Carolina

       D7 G 
But I woke up next day in misery


     C G 
I'm going back to you cause you're the one I love

 A7 D7 
Next to you is where I wanna be

 G C G 
We'll travel all around this whole wide country

       D7 G 
Cause anywhere is home when you're with me


                    C G 
I went to see some friends in old Virginia

     D7 G 
Ate loads of barbeque in Alabam

                   C G 
I played a lot of bluegrass down in Georgia

   D7 G 
I wound up lonesome in Louisianne


     C G 
I'm going back to you cause you're the one I love

 A7 D7 
Next to you is where I wanna be

 G C G 
We'll travel all around this whole wide country

       D7 G 
Cause anywhere is home when you're with me


     C G 
I'm going back to you cause you're the one I love

 A7 D7 
Together we will sing sweet harmony

 G C G 
We'll travel all around this whole wide country

       D7 G 
Cause anywhere is home when you're with me

       D7 C G 
Cause anywhere is home when you're with me

An Old Memory chords – Rhonda Vincent

 G C 
I thought I had driven you out of my mind

        G D7 
When I crossed that bridge on memory lane and burned it one last time

 G C 
I told myself it's over and I'm finally free

     D7 
But just when I thought I had buried your memory


It shows up just like a bad penny


 G C D7 
An old memory found its way back home again

 G C G D7 
Old feelings that I thought I'd lost have found their way back in

             G 
Like an old dog that you drop off just outside of town

 C 
Uninvited coming back anyhow

 G D7 G 
An old memory found its way back home again


                                   C 
I swept every room when I cleaned house

      G D7 
Tore up your old love letters and threw all of your pictures out

 G C 
But I can't throw away what I can't see

   D7 
I guess I fooled myself into believing forgetting you was gonna be easy


 G C D7 
An old memory found its way back home again

 G C G D7 
Old feelings that I thought I'd lost have found their way back in

             G 
Like an old dog that you drop off just outside of town

 C 
Uninvited coming back anyhow

 G D7 G 
An old memory found its way back home again


     C G 
Why can't I keep your memory away

      C A7 D7 
It's like a fire I can't put out a cold that I can't shake


 G C D7 
An old memory found its way back home again

 G C G D7 
Old feelings that I thought I'd lost have found their way back in

             G 
Like an old dog that you drop off just outside of town

 C 
Uninvited coming back anyhow

 G D7 G 
An old memory found its way back home again

  
 C G D7 G 
Yeah an old memory found it's way back home again

Vincent chords – Don Mclean V6

 Starry Starry
 D Em 
night paint your pallete blue and grey
               G A7 D 
Look out on a summers day with eyes tha know the darkness in my soul
                                       Em 
Shadows on hills sketch the tress and daffodils
                          G A7 D 
Catch the breeze and the winter chill In colors on the snowy linen land
chorus
 G D Em A7 D Bm 
        And now I understand      what you tried to say to me
                          Em7 A7 Bm 
How you suffered for you sanity     How you tried to set them free
                               E7 Em7 A7 D 
They would not listen the did not know how   perhaps they 'll listen now
               D Em 
Starry starry nite flamings flowr's that brightly blaze
               G A7 D 
Swirling coulds in violet haze reflect in VIncents eyes of china blue
                                       Em 
Colors changing hue,morning fields of amber graing
                          G A7 D 
Weatherd faces lined inpain Are soothed beneath the artists loving hand
chorus
           D Em7 A7 D 
{listen now}  For they could not love you  but still your love was true
 Bm Em7 Gm6 
    And when no hope was left in sight on that starry starry nite
     D C7 B7 Em7 
You took you life as lovers often do But I could of told you Vincent
      G A7 D 
This world was never meant for one as beautiful as you
               D Em 
Starry starry nite portraits hung in empty halls
               G A7 D 
frameless heads on nameless walls with eyes that watch the world and can't forget
                                       Em 
Like the strangers that you've met,the ragged men in ragged clothes
                          G A7 D 
The silver thorn the bloody rose Lie crushed and broken on the virgin snow
chorus
 G D Em A7 D Bm 
        And now I understand      what you tried to say to me
                          Em7 A7 Bm 
How you suffered for you sanity     How you tried to set them free
                                   E7 Em7 A7 
They would not listen, they're not listening still  perhaps they never will

Glacier chords – James Vincent Mcmorrow

 Glacier by James Vincent Mcmorrow
This is an amazing song.  Chords and lyrics are not perfect, but they are a start, hopefully.

Standard Tuning -- no capo
 G Bm A Bm A G Bm A 
 Someone hears a lie, somewhere underneath,
                         Bm A G 
caught between the reeling, mirroring the beat. 
                Bm A 
I no longer fit  and the years asleep. 
                         Bm A 
Show no sense of holding, staring aimlessly.

 D F#m Bm G 
I wanna go south of the river, glacier slow in the heart of the winter. 
 D F#m A G         
I wanna go south of the river, face it alone in the heart of the winter.

                          Bm A 
And this we'll celebrate,    this we'll celebrate 
                      Bm A G 
There and on the stage, this is a mistake. 
                     Bm A      
Damn me off the long.   Down the earth and moon, 
                        Bm A G 
damp and clawing kneeling, rustling into change. 
                    D A 
In a moment I was caught, in a calling by a steam. 
                                         Bm A 
In the moment of a hot.

 D F#m Bm G 
I wanna go south of the river, glacier slow in the heart of the winter. 
 D F#m A G         
I wanna go south of the river, face it alone in the heart of the winter.
       F#m Bm A Em        
I am knotted at the love called house.


 Bm 
Few became, few became as glory as long locked as the forest 
                                 G 
state and starting living near. 
              Em 
Harrow since, ever since the farthest reaching under we inside 
             C 
a cheat, his banks again, so dear.
                                       Em 
Someone hears a lie, somewhere underneath. Caught between 
      G C Em 
the reeling, mirroring the beat. I no longer fit, and in years we fall. 
                G C 
Silence is so cold, and there's no sense at all. 
                                          Em      
And I was someone else, I was something good. 
                   G D 
Barrelling at the old. There along the door.


 G Bm A G D    
I wanna go south of the river, face it alone in the heart of the winter. 
 G Bm A G         
I wanna go south of the river, face it alone in the heart of the winter.
 

Actor Out Of Work Acoustic Tabs by St Vincent V2

 INTRO
e----------------|
B-----10------10-|
G-----9-------9--|
D-----8-------8--|
A----------10----|
E-8-8----8-------|X4

e----------------|
B-----10------10-|
G-----9-------9--|
D-----8-------8--|
A----------10----|
E-8-8----8-------|X4
 You're a supplement, you're a salve/you're a bandage, pull it off

e-------------|
B-----6-----6-|
G-----5-----5-|
D-----4-----4-|
A---------6---|
E-4-4---4-----|X2
 I can quit you, cut it out

e----------------|
B-----10------10-|
G-----9-------9--|
D-----8-------8--|
A----------10----|
E-8-8----8-------|X2
 You're a patient, iron lung

e----------------|
B-----10------10-|
G-----9-------9--|
D-----8-------8--|
A----------10----|
E-8-8----8-------|X4
 (vocalizing)

e----------------|
B-----10------10-|
G-----9-------9--|
D-----8-------8--|
A----------10----|
E-8-8----8-------|X4
 You're a cast signed, broken arm/ you're an actor out of work

e-------------|
B-----6-----6-|
G-----5-----5-|
D-----4-----4-|
A---------6---|
E-4-4---4-----|X2
 You're a liar and that's the truth

e----------------|
B-----10------10-|
G-----9-------9--|
D-----8-------8--|
A----------10----|
E-8-8----8-------|X2
 You're an extra lost in the scene

e--------------------/---------------------|
B-----8---8-----8---8/-----6---6-----6---6-|
G-----7---7-----7---7/-----5---5-----5---5-|
D-----9---9-----9---9/-----7---7-----7---7-|
A---7---7-----7---7--/---5---5-----5---5---|
E-7---------7--------/-5---------5---------|
 (vocalizing)

e----------------|
B-----10------10-|
G-----9-------9--|
D-----8-------8--|
A----------10----|
E-8-8----8-------|X4

e----------------|
B-----10------10-|
G-----9-------9--|
D-----8-------8--|
A----------10----|
E-8-8----8-------|X4
 You're a boxer in the ring/ with brass knuckles underneath

e-------------|
B-----6-----6-|
G-----5-----5-|
D-----4-----4-|
A---------6---|
E-4-4---4-----|X2
 You're the curses through my teeth

e----------------|
B-----10------10-|
G-----9-------9--|
D-----8-------8--|
A----------10----|
E-8-8----8-------|X2
 You're the laughter, you're the obscene

e--------------------/---------------------|
B-----8---8-----8---8/-----6---6-----6---6-|
G-----7---7-----7---7/-----5---5-----5---5-|
D-----9---9-----9---9/-----7---7-----7---7-|
A---7---7-----7---7--/---5---5-----5---5---|
E-7---------7--------/-5---------5---------|
 (vocalizing)

e----------------|
B-----10------10-|
G-----9-------9--|
D-----8-------8--|
A----------10----|
E-8-8----8-------|X4

e-----------------------------------------------------------------|
B-----------------------------------------------------------------|
G-----0-------0-------1-------1-------2-------2-------3-------3---|
D---2---2---2---2---2---2---2---2---2---2---2---2---2---2---2---2-|
A-3-------3-------3-------3-------3-------3-------3-------3-------|
E-----------------------------------------------------------------|
 You're a supplement, you're a salve/ you're a bandage, pull it off

e-------------|
B-----3-----3-|
G-----2-----2-|
D-----1-----1-|
A---------3---|
E-1-1---1-----|X2
 I think I love you, I think I'm mad

e-----------------------------------------------------------------|
B-----------------------------------------------------------------|
G-----0-------0-------1-------1-------2-------2-------3-------3---|
D---2---2---2---2---2---2---2---2---2---2---2---2---2---2---2---2-|
A-3-------3-------3-------3-------3-------3-------3-------3-------|
E-----------------------------------------------------------------|
 You're a cast signed, broken arm/ you're an actor out of work

e-------------|
B-----3-----3-|
G-----2-----2-|
D-----1-----1-|
A---------3---|
E-1-1---1-----|X2
 I think I love you, I think I'm mad

e-----------------------------------------------------------------|
B-----------------------------------------------------------------|
G-----0-------0-------1-------1

Black Rainbow chords – St Vincent

 Ab Ebm  
There's a black rainbow upon my house
 Ab Dbm 
Match the curtains and the floors
 Ab Ebm 
Think I'm glass I think I'm breaking it
 Ab Dbm  
Wrecking ball outside the door

 Ab Ebm Ab Dbm Ab Ebm  
Let the children act like furniture
 Ab Dbm  
For the ladies of the lawn
 Ab Ebm 
But I can't see them, I can't see at all
 Ab Dbm  
It's night time all the time

 Dbm Ab Ebm  
Bird outside the kitchen, fighting his reflection
 Dbm A 
Tell him I got nothing for him
 Ab Ebm 
Bird outside the kitchen, fighting his reflection
 Dbm A 
What's he gonna win when he wins?

 Ab Ebm 
Unkissed boys and girls of paradise
 Ab Dbm  
Lining up around the block
 Ab Ebm 
Back pockets full of dynamite
 Ab Dbm  
While neighbors talk and talk and talk

 Dbm Ab Ebm 
Bird outside the kitchen fighting his reflection
 Dbm A 
Tell him I got nothing for him
 Ab Ebm 
Bird outside the kitchen fighting his reflection
 Dbm A 
What's he gonna win when he wins?

 Ab Ebm  (repeat) 

 Fm Ebm  
Throw the phone out the window
 Dbm A 
If you want the neighbors woke

You'll have to shout out loud
 Ab Ebm 
And set the bed alight and slow
                           Dbm 
If you want the neighbors woke
                 A                          
You'll have to shout even louder

 Fm E Bm Bb  (repeat till end) 

We Are Ghosts Tabs by James Vincent Mcmorrow V2

 *First tab so sorry if it's not completely up to par/hard to understand*

Capo 2

h=hammer on

Intro and Verses:
E|-------------------------------------------------------------|
B|---------1-------3---3---0-----------1-------3---3---0-------|
G|---2---2---2---2-----------0---2---2---2---2-----------0---0-|  (repeat)
D|-----2-------2-----2---2---------2-------2-----2---2-----2---| 
A|-0---------------------------0-------------------------------|
E|-------------------------------------------------------------|

Chorus:
               Fmaj7                              C
E|---------------------------------|---------------------------------|
B|---------1---------------1-------|---------1---------------1-------|
G|---2---2---2---2---2---2---2---2-|---0---0---0---0---0---0---0---0-|
D|-----3-------3-------3-------3---|-----2-------2-------2-------2---|
A|---------------------------------|-3---------------3---------------|
E|-1---------------1---------------|---------------------------------|


                G                                  D
E|---------------------------------|---------2---------------2-------|
B|---------3---------------3-------|---3---3---3---3---3---3---3---3-|
G|---0---0---0---0---0---0---0---0-|-----2-------2-------2-------2---|
D|-----0-------0-------0-------0---|-0---------------0---------------|
A|---------------------------------|---------------------------------|
E|-3---------------3---------------|---------------------------------|



Outro:
    Fmaj7          C               G           
E|-----------------------------------------------------------------|
B|---------1---1---1---1---1---1---0---0---0---0---0---0---0---0h1-|
G|---2---2-2---2---0---0---0---1---0---0---0---0---0---0---0---0---|
D|-----3-----------------------------------------------------------| 
A|-------------------3---3---3---3---------------------------------|
E|-1---------1---1-------------------3---3---3---3---3---3---3-----|

After you play the outro like that once, the Fmaj7 picking pattern changes to:
E|-----------------|
B|-1---1---1---1---|
G|-2---2---2---2---|
D|-----------------|
A|-----------------|
E|---1---1---1---1-|

Repeat outro with this Fmaj7 pattern x5 and end on G

--------------------------------------------------------------------------
That's all! I love this song but I wasnt finding any tabs that sounded accurate
 enough so I just decided to try to do it myself and this was the result. It sounds
 pretty good to me so hopefully you guys like it as well. Feel free to comment
 with corrections as my ear isn't perfect so I probably missed something. Enjoy!

En Attendant Le Soleil chords – Vincent Vallieres

 En attendant le soleil, Vincent Vallières, auteur-compositeur

 G  
 Y me reste plus de foin
  Em  
 En faite presque plus rien
  Bm  
 À part peut-être une chanson
  C D  
 Qui traine là-bas dans l'coin


  G  
 En attendant le soleil
  Em  
 J'ai bin de choses a faire
  Bm  
 J'ai bin des choses a dire
  C D  
 Pas des paroles en l'air
  G  
 Oooooooooh


  Em  
 Mon amour
  Bm  
 Tout les jours
  C D  
 J'y pense un peu moins
  G  
 Oooooooooh
  Em  
 Mon amour
  Bm  
 S't' a mon tour
  C D  
 De retrouver mon chemin


  G Em Bm C D  
 Palapalaplalalala(x2)


  G  
 La prochaine paye est loin
  Em  
 Y me reste presque plus rien
  Bm  
 À part une couple de souvenirs
  C D  
 Et la photo que je tiens dans mes mains


  G  
 En attendant le soleil
  Em  
 Je continue de croire
  Bm  
 Je continue de rire
  C D  
 J'arrive a pas m'en faire
  G  
 Oooooooooh


  Em  
 Mon amour
  Bm  
 Tout les jours
  C D  
 J'y pense un peu moins
  G  
 Oooooooooh
  Em  
 Mon amour
  Bm  
 S't' a mon tour
  C D  
 De retrouver mon chemin


  G Em Bm C D  
 Palapalapalapalalala(x2)


  G  
 Ouuuuu
  Em  
 Mon amour
  Bm  
 S't'a mon tour
  C D  
 De retrouver mon chemin


  G Em Bm C D  
 Palapalapalapalalala(x4)

Je Pars Pied chords – Vincent Vallieres

 Je Pars à pied, Vincent Vallière / auteur, compositeur

Capo 3

  D A F#m G    (x2)


  D A F#m G  
 Passé midi je sors des vappes
  D A F#m G  
 Je pars à pied et je m'échappe
         D A  
 Je salue mon voisin bonasse
         F#m G  
 Assis peinard sur sa terrasse
           D A  
 Un peu de vie au ralenti
          F#m G  
 Un peu de guit' sur la galerie


  D A F#m G    (x2)


  D A F#m G  
 Aujourd'hui le monde est à sa place
  D A F#m G  
 Y me reste sûrement une couple de piasses
  D A  
 J'ai ben à faire, j'ai ben du fun
  F#m G  
 Et pis j'appartiens à personne
    D A  
 J'sais pas encore où m'en aller
    F#m G  
 Mais c'est pas grave j'suis pas pressé

  G D F#m  
 ahhhh ahhhh ahhhh ahhhhh ah ah ah ah
          Em  
 Au fond j'ai pas besoin de grand chose
  G D F#m  
 ahhhh ahhhh ahhhh ahhhhh ah ah ah ah
                 Em A  
 Je pars à pied je pense un peu à toi

  D A F#m G    (x2)


  D A F#m G  
 Passé midi je sors des vappes
  D A F#m G  
 Je pars à pied et je m'échappe
       D A  
 Y'a d'la musique qui joue partout
       F#m G  
 Ouvre tes châssis parce que l'air est doux
       D A  
 C'comme un baume sur la solitude
       F#m G  
 Faudrait ben en prendre l'habitude

  G D F#m  
 ahhhh ahhhh ahhhh ahhhhh ah ah ah ah
          Em  
 Au fond j'ai pas besoin de grand chose
  G D F#m  
 ahhhh ahhhh ahhhh ahhhhh ah ah ah ah
                 Em A  
 Je pars à pied je pense un peu à toi

Le Temps Passe chords – Vincent Vallieres

 LE TEMPS PASSE, auteur-compositeur Vincent Vallières.

Intro :   Em G D Am Em G  
 Ma peine est légère quand le gazon est vert
     D Am Em G D Am  
 Quand le gazon est vert je vois tout à l'envers
  Em G  
 Nus pieds dans le vice  j'en fais pas un supplice
          D Am Em G D Am  
 J'en fais pas un supplice  tant que j'ai le bon tourne-vis


        G D/F# Am Em  
 Moi je ris comme un fou  sous le soleil doux
      G D/F# Am Am  
 Je dors dans    clarté  des étoiles l'été
     G D/F# Am Em  
 Je file dans les jours  la guitare à l'envers
          G D/F# Am  
 Puis je flâne dans un lit  en écoutant la pluie
            Em G D Am  
 Et le temps passe
            Em G D Am  
 Et le temps passe


  Em G  
 Ma peine est légère loin de tous mes travers
    D Am Em G D Am  
 Loin de tous mes travers et je sors de l'hiver
  Em G  
 Nus pieds dans l'abysse je vis sans arti-fice
         D Am Em G D Am  
 Sans but et sans malice tant que l'air est gratis


        G D/F# Am Em  
 Moi je ris comme un fou sous le soleil doux
      G D/F# Am Em  
 Je dors dans  clarté des étoiles l'été
      G D/F# Am Em  
 Je file dans les jours la guitare à l'envers
          G D/F# Am  
 Puis je flâne dans un lit en écoutant la pluie
            Em G D Am  
 Et le temps passe
            Em G D Am  
 Et le temps passe


  Em  ...
            Em G D Am  
 Et le temps passe
              Em G D Am  
 Et des fois je déjoue
              Em G D Am  
 Et des fois je délaisse
              Em G D Am  
 Et souvent je lousse la laisse
           Em G D Am  
 Et le temps passe
              Em G D Am  
 Et des fois me dépasse
              Em G D Am  
 Et me perd dans l'espace
             Em G D Am  
 Et des fois


  G D/F# Am Em G D/F# Am Am

Stone chords – Vincent Vallieres

 STONE auteur, compositeur:Vincent Vallières

Intro :   G B7 Em C   (x4)


  G B7 Em  
 Nos vieilles rancunes
           C  
 Larguées loin derrière,
  G B7 Em  
 Accrochés à la lune
           C  
 On a ben mieux à faire
  G B7  
 Sorti de la brume
        Em C  
 Je ne touche plus à terre


  G B7 Em  
 On se promet rien
              C  
 Sinon qu'un peu de temps
       G B7 Em  
 Pour flâner tous les deux
         C  
 Ici et maintenant
  G B7 Em  
 Profiter de la ride
     C  (x2)
 Et faire confiance au vent
                    Am  
 Avec toi, je suis libre


                         G B7 Em  
 Toi, tu me mets sur un high stone
           C G B7 Em  
 Toi, pis moi, on a du fun stone
    C G B7  
 Loin des problèmes des hommes
     Em C  
 De machines et de guns


 Instrumental :   G B7 Em C  (x2)


     G B7 Em  
 On déconne, on assume
              C  
 On monte le volume
  G B7 Em  
 Un rien nous arrange
             C  
 On fait fi de la une
  G B7 Em  
 On s'en fout; on s'enlace
                      C  
 La vraie vie nous dépasse
                       Am  
 Et tout redevient possible


                         G B7 Em  
 Toi, tu me mets sur un high stone
           C G B7 Em  
 Toi, pis moi, on a du fun stone
           C G B7  
 Loin des problèmes des hommes
     Em C  
 De machines et de guns


 Instrumental :   G  (x4)  C C/B G  (x4)  C  (x2)  C B G  (x4)  C  (x2)  C/B D C G B7 Em  
 Toi, tu  me mets sur un high stone
           C G B7 Em  
 Toi, pis moi, on a du fun stone
           C G B7  
 Loin des problèmes des hommes
     Em G B7 Em  
 De machines  et de guns


                    G B7 Em  
 Tu me mets sur un high stone
           C G B7 Em  
 Toi, pis moi, on a du fun stone
           C G B7  
 Loin des problèmes des hommes
     Em C  
 De machines  et de guns


        C G B7 Em  
 Tu me mets sur un high stone
           C G B7 Em  
 Toi, pis moi, on a du fun stone
           C G B7  
 Loin des problèmes des hommes
     Em C  
 De machines  et de guns


 outro :   G B7 Em C G B7 Em C

Cavalier chords – James Vincent Mcmorrow V2

 I tabbed this by ear. Love this song :)

Standard tuning
No capo


                 E 
Speak until the dust
                Abm 
settles in the same specific place
                  B 
Light refused to go
                 F# 
Drink it from a cast and iron plate
                 C#m 
instead of cold milk
               Abm 
was offered unripe
              B 
Instead of silence, considered craven


                 E 
Nothing made it seem
                  Abm 
hidden where the ageing soil was pure
                     B 
Pressed against the crease
                  F# 
Mountains become fragrant at the source
                  C#m 
how can you stand this
         Abm 
exotic angle
               B 
I read it somewhere
                     F# 
that they would lie still


                C#m 
I remember how cloth hung
                  Abm 
flexing with the forest clung
                B 
Half waist and high raised arms
                A 
kicking at the slightest form
               E C#m 
I remember my first love
               Abm 
I remember my first love


 E 
Unrelied I was called
                       Abm 
missing teeth out of favour
 B 
Nickel beach it was all
                     F# 
gathering by the sundial

 C#m 
I woke hard, I woke heavy
         Abm 
for the half way stop, five whole hours in
      B 
when I woke hard
                       F# 
I woke heavy with the live or parts


                C#m 
I remember how cloth hung
                  Abm 
flexing with the forest clung
                B 
Half waist and high raised arms
                A 
kicking at the slightest form
                E C#m 
I remember my first love
               Abm 
I remember my first love


 C#m ,  Abm ,  B ,  F#  (x2)


                C#m 
I remember how cloth hung
                  Abm 
flexing with the forest clung
                B 
Half waist and high raised arms
                A 
kicking at the slightest form
               E C#m 
I remember my first love
               Abm B 
I remember my first love
               A E Abm 
I remember my first love


 E ,  Abm ,  B ,  F# ,  C#m ,  Abm ,  B

Human Racing Tabs by St Vincent V2

 Human Racing
By St. Vincent
 MothScowl
Capo @ 4 (or none on live recordings)


Intro:
e|----------------------------------|
B|-------3p0-3/5-3p1p0--------0-----|
G|----------------------0-0h2---2p0-|
D|-----2----------------------------|
A|-0h3---3---3/5-3------------------|
E|----------------------------------|

e|--------------------------------|
B|-------3p0-3/5-3p1p0--------0---|
G|----------------------0-0h2---2-|
D|-----2--------------------------|
A|-0h3---3--------3/5-3-----------|
E|--------------------------------|
Verse: Play 3 times
e|-----------------------0-|
B|---0-----0-3-1-0---------|
G|---0-----0-0-0-0-0-------|
D|---2-----2-2-2-2---2-----| x2
A|-3---0-3---3---3-----3---|
E|-------------------------|

e|---------------------------|
B|---2-----2---2-----2-------|
G|---2-----2---2-----2---6/0-|
D|---2-----2---2-----2-------| x2
A|-0-----0---0-----0---0-----|
E|-----0---------0-----------|

e|-----------------------0-|
B|---0-----0-3-1-0---------|
G|---0-----0-0-0-0-0-------|
D|---2-----2-2-2-2---2-----| x2
A|-3---0-3---3---3-----3---|
E|-------------------------|

e|---------------------------|
B|---2-----2---2-----2-------|
G|---2-----2---2-----2---6/0-|
D|---2-----2---2-----2-------| 
A|-0-----0---0-----0---0-----|
E|-----0---------0-----------|

e|-------------------------|
B|---2-----2---2-----2---2-|
G|---2-----2---2-----2---2-|
D|---2-----2---2-----2---2-| 
A|-0-----0---0-----0---0---|
E|-----0---------0---------|

e|----------------------------------|
B|-------7-------7-------7-------7--|
G|---------7-------7-------7--------|
D|----------------------------------|
A|-0/5p0-----5p0-----5p0-----5p0----|
E|----------------------------------|

e|-x-------------------------------------------------|
B|-x-------------------------------------------------|
G|-x---5-----5---5-----5---5---4-----4---4-----4---4-|
D|-x---6-----6---6-----6---6---5-----5---5-----5---5-|
A|-x---3-----3---3-----3---3---5-----5---5-----5---5-|
E|-x-4---0-4---4---0-4---4---3---0-3---3---0-3---3---|

e|-------3p2---------2-----------0-----|
B|-----0-----0-------------------------|
G|---0-------------2---2-------0---0---|
D|-2-------------4-------4---2-------2-|
A|-------------5-----------4-----------|
E|-------------------------------------|

e|---------------------------------------------0-----0-----0-----0-|
B|---4-4---4-4---4-4---4---4---3-3---3---3---2-----2-----2-----2---|
G|---4-4---4-4---4-4---4---4---3-3---3---3---2-----2-----2-----2---|
D|---4-4---4-4---4-4---4---4---3-3---3---3---2-----2-----2-----2---|
A|-2-----------2---------2---1---------1---0-----0-----0-----0-----|
E|-------2-----------2-------------1-------------------------------|

Instrumental Break (or hum 'da da da da da' like she does live)
e|------------------------------------------------------------------------------------------------|
B|---0-----0-----0-----0-----0-----0-----0-----0-----2-----2-----2-----2-----2-----2-----2-----2--|
G|---0-----0-----0-----0-----0-----0-----0-----0-----2-----2-----2-----2-----2-----2-----2-----2--|
D|---2-----2-----2-----2-----2-----2-----2-----2-----2-----2-----2-----2-----2-----2-----2-----2--|
A|-3---0-3---0-3---0-3---0-3---0-3---0-3---0-3-----0-----0-----0-----0-----0-----0-----0-----0----|
E|-----------------------------------------------0-----0-----0-----0-----0-----0-----0-----0------|

Outro: Repeat until fade out
e|-----------------------------------------------------------------------------------------------|
B|-----------------------------------------------------------------------------------------------|
G|-------2p0-----------2p0---2p0-2p0-----------2p0------2p0-----------2p0---2p0-2p0----------2p0-|
D|---2p0-----2p0---2p0---------------2p0---2p0------2p0-----2p0---2p0---------------2p0---2p0----|
A|-4-------------4---------4-------------4--------3-------------3---------3-------------3--------|
E|-----------

Vincent Cyr – Buddy Orange Tabs

 Buddy Orange

Artist: Vincent Cyr

: TheDarkRane

Difficulty: Intermediate

Tuning: D Standard (DGCFAd)
It can be played in E Standard but I prefer the lower tones of D Standard.
In his first video he played it close to E standard, but I think he was a little out of tune.
In his 2013 version I'm pretty sure he was in D Standard.

To hear the song, go here: http://www.youtube.com/watch?v=ECKi1sogAeU

Part 1

The whole song is played fingerstyle using mostly the thumb and index finger on your 
picking hand.

With your fretting hand you should try to hold most of the notes so that they ring out.

You can try to play it with a pick but the results probably won't be very satisfying.

d|------------------------------------7--7h10p7--|-----------------------------------3--3h5p3--|
A|-----5---5------7--8~-----8---8/10-------------|-----5---5------7--3~-----3---3/5------------|
F|-----------------------------------------------|---------------------------------------------|
C|-----------------------------------------------|---------------------------------------------|
G|-3~----3---3/5--5--7~--7----7------------------|-3~----3---3/5--5--2~--2----2----------------|
D|-----------------------------------------------|---------------------------------------------|



d|-------------------------------------7--7h10p7--|--------------------*12~--|
A|-----5---5------7--7~/8~---8---8/10-------------|-----5---5------7---*12~--|
F|------------------------------------------------|--------------------*12~--|
C|------------------------------------------------|--------------------------|
G|-3~----3---3/5--5--5~/7~-----7------------------|-3~----3---3/5--5---------|
D|------------------------------------------------|--------------------------|

Part 2

This part can be tricky.

You can either choose to wrap your thumb over the top of the neck to fret the low D string,

or you can fret it with your middle finger and use your remaining fingers to fret the 
melody notes.

d|----3----2----2h3p2-----5--2--|----3----2----2h3p2-----5--2--|
A|------------------------------|------------------------------|
F|------------------------------|------------------------------|
C|------------------------------|------------------------------|
G|------------------------------|------------------------------|
D|-3~---3~---3~--------3~-------|-3~---3~---3~--------3~-------|



d|----0----0----7----7---7/12--|---12---12---10----8----8h10p8\--|
A|-----------------------------|---------------------------------|
F|-----------------------------|---------------------------------|
C|-----------------------------|---------------------------------|
G|-----------------------------|---------------------------------|
D|-0~---0~---0~---0~---0~------|-0~---0~---0~---0~---0~----------|



d|----3----2----2h3p2-----5--2--|----3----2----2h3p2-----5--0--|
A|------------------------------|------------------------------|
F|------------------------------|------------------------------|
C|------------------------------|------------------------------|
G|-0~---0~---0~--------0~-------|-0~---0~---0~--------0~-------|
D|------------------------------|------------------------------|



d|---5----5-----7----7----7/8--|---8----8-----12---12---12\------|
A|-----------------------------|---------------------------------|
F|-----------------------------|---------------------------------|
C|-----------------------------|---------------------------------|
G|-3----3----/5----5----5--/7--|-7----7----/9----9----9----------|
D|-----------------------------|---------------------------------|



d|----3----2----2h3p2-----5--2--|----3----2----2h3p2-----5--2--|
A|------------------------------|------------------------------|
F|------------------------------|------------------------------|
C|------------------------------|------------------------------|
G|------------------------------|----------------------------

Cavalier chords – James Vincent Mcmorrow

 E)  e|-7-|---|---|
    B|-7-|---|-9-|
    G|-7-|---|-9-|
    D|-7-|---|-9-|
    A|-7-|---|---|
    E|-7-|---|---|

G#m)e|-11-|----|----|
    B|-11-|-12-|----|
    G|-11-|----|-13-|
    D|-11-|----|-13-|
    A|-11-|----|----|
    E|-11-|----|----|

B)  e|-7-|---|---|
    B|-7-|---|---|
    G|-7-|-8-|---|
    D|-7-|---|-9-|
    A|-7-|---|-9-|
    E|-7-|---|---|

F#) e|-9-|---|----|
    B|-9-|---|-11-|
    G|-9-|---|-11-|
    D|-9-|---|-11-|
    A|-9-|---|----|
    E|-9-|---|----|

C#m)e|-9-|---|----|
    B|-9-|---|----|
    G|-9-|---|----|
    D|-9-|---|-11-|
    A|-9-|---|-11-|
    E|-9-|---|----|




"Cavalier"

 E
Speak until the dust
 G#m
settles in the same specific place
 B
Light refused to go
 F#
Drink it from a cast and iron plate
 C#m
instead of cold milk
 G#m
was offered unripe
 B
Instead of silence

considered craven


 E
Nothing made it seem
 G#m
hidden where the aging soil was pure
 B
Pressed against the crease
 F#
Mountains become fragrant at the source
 C#m
how can you stand this
 G#m
exotic angle
 B
I read it somewhere

that they would lie still



 E
I remember how cloth hung
 G#m
flexing with the forest clung
 B
Half waist and high raised arms
 F#
kicking at the slightest form
 C#m G#m
I remember my first love
 B
I remember my first love


I don't know. clap for this bit. If anyone can suggest anything.
-----------------------
Unrelied I was called

missing teeth out of favour

Nickel beach it was all

gathering by the sundial




I woke hard

I woke heavy

for the half way stop

Five whole hours in

when I woke hard

I woke heavy with the live or parts

---------------------------------------------------------

 E
I remember how cloth hung
 G#m
flexing with the forest clung
 B
Half waist and high raised arms
 F#
kicking at the slightest form
 C#m G#m
I remember my first love
 B
I remember my first love




I remember my first love

We Are Ghosts chords – James Vincent Mcmorrow

 (We are) Ghost 
James Vincent Mcmorrow
Enjoy :) -mzoeli

If you're planing to do the plucking, this is the one for the whole song except for chorus
    Bm Am       |  Bm Am 
 (Starts with this)|(cont with this)
e|---------|x-x----|----------|x-x----|
B|-----x---|----x--|x-----x---|----x--|
G|--x-x-x-x|-x-x---|---x-x-x-x|-x-x---|
D|-x-x---x-|-------|--x-x---x-|-------|
A|---------|-------|----------|-------|
E|---------|-------|----------|-------|
  The mooooooon holds the light
  And the moon's this spinning globe... .


     Bm A 
The moon holds the light
         F#m                    
And the moon's this spinning globe
          E 
Shedding light upon the road
     Bm A 
The bird won't fly
       F#m E 
And a bird without its wings is a low and tragic thing

        Bm 
We are ghosts
        F#m      
We are ghosts amongst these hills
          E 
From the trees of velvet green
        C#m 
To the ground beneath our feet
        Bm 
We are ghosts
        F#m 
We are ghosts amongst these hills
          E 
Pressing out along the shore
          C#m 
Pressing out along the shore

e|---10-9-7-5-4-5-2----4-5-4-0-2---4-5-7-2-4-5-4

[OR]

e|--10-9-7-------------------------------------------
B|---------10-9-10-7--- 9-10-9------9-10-12----9-10-9
G|----------------------------9-11----------11-------
D|---------------------------------------------------
A|---------------------------------------------------
E|---------------------------------------------------

 Bm A F#m E 
The mountain song
Matters not the thoughts of thirds
Matters only to be heard
And though I'm gone
I will come again in Spring
When the harvest can begin

 Bm F#m E C#m 
We are ghosts
We are ghosts amongst these hills
From the trees of velvet green
To the ground beneath our feet
We are ghosts
We are ghosts amongst these hills
Pressing out along the shore
Pressing out along the shore

 Bm F#m A  x6