Tag: vsion

Daddy Cool chords – Boney M. Vsion 1

 Dm C Am Dm 
She's crazy like a fool, what about it, Daddy Cool?

 Dm C Am Dm Dm C Am Dm 

Refr.:
 Dm C Am Dm 
She's crazy like a fool, what about it, Daddy Cool?
                  C Am Dm 
I'm crazy like a fool, what about it, Daddy Cool?
              C Am Dm 
Daddy, Daddy Cool, Daddy, Daddy Cool.
              C Am Dm 
Daddy, Daddy Cool, Daddy, Daddy Cool.

 Dm C Am Dm Dm C Am Dm 

Refr.:
 Dm C Am Dm 
She's crazy like a fool, what about it, Daddy Cool?
                  C Am Dm 
I'm crazy like a fool, what about it, Daddy Cool?
              C Am Dm 
Daddy, Daddy Cool, Daddy, Daddy Cool.
              C Am Dm 
Daddy, Daddy Cool, Daddy, Daddy Cool.


Refr.:
 Dm C Am Dm 
She's crazy like a fool, what about it, Daddy Cool?
                  C Am Dm 
I'm crazy like a fool, what about it, Daddy Cool?
              C Am Dm 
Daddy, Daddy Cool, Daddy, Daddy Cool.
              C Am Dm 
Daddy, Daddy Cool, Daddy, Daddy Cool.


(spoken) 
She's crazy about her daddy 
Oh she believes in him 
She loves her daddy

Refr.:
 Dm C Am Dm 
She's crazy like a fool, what about it, Daddy Cool?
                  C Am Dm 
I'm crazy like a fool, what about it, Daddy Cool?
              C Am Dm 
Daddy, Daddy Cool, Daddy, Daddy Cool.
              C Am Dm 
Daddy, Daddy Cool, Daddy, Daddy Cool.

See Ya Sucker Tabs – Modern Baseball Vsion 2

 Track: See Ya, Sucker
Artist: Modern Baseball
 Sports (2014)
Tuning: Eb Standard (Eb Ab Db Gb Bb eb)

---

: Noah Maranesi
Website: Instagram.com/n04hz_ark

---

Guitar 1 - Brendan (left)

Intro (0:00) (exact strumming not shown)

    "I reckon you grew up in a town that said reckon all the time..."
                                                                                                             x2
 | B        | C#m               G#m     | A              B       | E                C#m      | B              |
e|----------|---------------------------|------------------------|---------------------------|----------------|
B|:---------|---------------------------|------------------------|---------------------------|---------------:|
G|----------|---------------------------|------------------------|---------------------------|----------------|
D|--1--1--1-|-2--2--2--2--2--2----------|------------------------|-6--6--6--6--6--6----------|----------------|
A|:-2--2--2-|-4--4--4--4--4--4--2--2--2-|-4--4--4--4--4--6--6--6-|-7--7--7--7--7--7--7--7--7-|-6--6--6--6--6-:|
E|----------|-------------------4--4--4-|-5--5--5--5--5--7--7--7-|-0--0--0--0--0--0--9--9--9-|-7--7--7--7--7--|


Verse (0:18)

    "Well here goes nothing..."
    Repeat Intro x2


Pre-Chorus (0:38) (exact strumming not shown) (strum each noted chord twice)

    "But I, won't fuckin' wait..."

                                                      x2
 | G#m         | A          | E          | E           | B             |
e|-------------|------------|------------|-------------|---------------|
B|:------------|------------|------------|------------:|---------------|
G|-------------|------------|------------|-------------|---------------|
D|-------------|------------|-6--6--6--6-|-6--6--6--6--|---------------|
A|:-2--2--2--2-|-4--4--4--4-|-7--7--7--7-|-7--7--7--7-:|-6--6--6--6--6-|
E|--4--4--4--4-|-5--5--5--5-|-0--0--0--0-|-0--0--0--0--|-7--7--7--7--7-|


Chorus (0:59) (strum each noted chord twice)

    "On the corner of Canal and Broadway..."


e|--4--4--4--4--4--4--0--0--4--4--4--4--4--4--0--0--|
B|:-5--5--5--5--5--5--2--2--5--5--5--5--5--5--2--2--|
G|--------------------------------------------------|
D|--------------------------------------------------|
A|:-------------------------------------------------|
E|--------------------------------------------------|

                                                   x2
e|--2--2--2--2--2--2--4--4--0--0--0--0--0--0--0--0--|
B|--4--4--4--4--4--4--5--5--2--2--2--2--2--2--2--2-:|
G|--------------------------------------------------|
D|--------------------------------------------------|
A|-------------------------------------------------:|
E|--------------------------------------------------|


Post-Chorus (1:18)

e|----------------------------------------------------|
B|----------------------------------------------------|
G|----------------------8--8--8-/-6--6-6--6--6--6--6--|
D|--6--6-6--6--6--6--6--9--9--9-/-7--7-7--7--7--7--7--|
A|--7--7-7--7--7--7--7--------------------------------|
E|--0--0-0--0--0--0--0--------------------------------|

                                x2
e|-------------------------------|--+7+--|
B|:-9--9--9---------------------:|--+7+--|
G|--9--9--9----------------------|--+7+--|
D|-----------6--6-6--6--6--6--6--|--+7+--|
A|:----------7--7-7--7--7--7--7-:|--+7+--|
E|-----------0--0-0--0--0--0--0--|--+7+--|


Verse 2 (1:28)

    "If you get stuck I'm just gonna go on without you..."
    Repeat Post-Chorus without harmonics (last measure)

Chorus (1:38)
    
    "On the corner of Canal and Broadway..."
    Repeat Chorus

Outro (1:56)

    "And I reckon you grew up in a town..."

e|--4--4--4--4--4--4--0--0--4--4--4--4--4--4--0--0--|
B|--5--5--5--5--5--5--2--2--5--5--5--5--5--5--2--2--|
G|--------------------------------------------------|
D|--------------------------------------------------|
A|--------------------------------------------------|
E|------------------------------

You Belong To Me chords – Bryan Adams Vsion 3

 Cracking, simple song but very nice to play.

Capo 2

Intro [G]

 G 
I'll take the night train - I'll take an airplane
     Em D G 
Cuz you belong to me

 G 
I just wanna to say - ain't gonna let you get away
     Em D G 
Cuz you belong to me

              Em D G C 
I only wanna hoooold you
              Em D G C 
I just wanna hoooold you
              Em D G C G 
C'mon let me hoooold you tonight

 G 
You say ya ain't leavin', I can't help dreamin'
 Em D G 
You belong to me

 G 
I'll take the high way, I'll take the low way
     Em D G 
Cuz you belong to me

              Em D G C 
I only wanna hoooold you
              Em D G C 
I just wanna hoooold you
              Em D G C G 
C'mon let me hoooold you tonight

Solo [  Em D G C Em D G C Em D G C G  ]

 G 
I'm not drinkin', gets me thinkin'
 Em D G 
You belong to me

 G 
While you're out there, remember I'm right here
     Em D G 
And you belong to me

              Em D G C 
I only wanna hoooold you
              Em D G C 
I just wanna hoooold you
              Em D G C 
C'mon let me hoooold you
              Em D G C G 
C'mon let me hoooold you
   G 
Tonight

Showdown chords – Electric Light Orchestra Vsion 2

 Showdown – Electric Light Orchestra, from 1973’s On The Third Day
Written by Jeff Lynne.
I’m not sure about the lyrics in the fade-out. If anyone has any idea, let me know.
Also not 100% sure if there's a chord change after Gm7 in the chorus.

Cello Riff:
D|--------1----|
A|-3-3-1h3-h3-3| Played over some of the Cm chords.
Legend:
H = Hammer-on


Intro:
 Gm7 Cm 

Verse 1:
     Cm 
She cried to the southern wind
         Gm7 
About a love that was sure to end
       Fm            
Every dream in her heart was gone
               Cm 
Headin' for a Showdown

Verse 2:
 Cm 
Bad dreamer, what's your name
                  Gm7 
Looks like we're ridin' on the same train
          Fm 
Looks as though there'll be more pain
                    Cm           
There's gonna be a Showdown


Chorus:
          Gm Fm 
And it's rainin' all over the world
      Gm F#m Fm 
It's raining all over the world
 Gm7 Cm 
Tonight, the longest night


Verse 3:
     Cm 
She came to me like a friend
     Gm7 
She blew in on a southern wind
        Fm 
Now my heart has turned to stone again
                    Cm 
There's gonna be a Showdown

Verse 4:
 Cm Gm7 
Save me, oh save me
 Fm 
It's unreal, the suffering
                    Cm 
There's gonna be a Showdown

Chorus:
          Gm Fm 
And it's rainin' all over the world
      Gm F#m Fm 
It's raining all over the world
 Gm7 Cm 
Tonight, the longest night

Solo:
 Cm7 Gm Fm Cm Cm Gm 
Raining, raining
 Fm Cm 
Raining, raining

Chorus:
 Gm Fm 
Rainin' all over the world
      Gm F#m Fm 
It's raining all over the world
 Gm7 Cm 
         the longest night

 Gm Fm 
And it's rainin' all over the world
      Gm F#m Fm 
It's raining all over the world
 Gm7 Cm 
Tonight, the longest night


Fade-out:
 Cm Cm 
You gotta save me, girl
 Cm 
When I’m a raving success???
 Cm 
Oh, fool for you
 Cm 
You know I’m really???
 Cm 
Come on and see me
 Cm 
Can’t you see what you're doing to me now
 Cm 
Im on the road again
 Cm 
Gotta save your soul

 musicfreak0

Yellow Acoustic chords – Coldplay Vsion 8

 CAPO 4 

Intro  G G 
Look at the stars,
                          D 
Look how they shine for you,
                     C 
And everything you do,
                         G 
Yeah they were all yellow,

  
I came along
                     D 
I wrote a song for you
                         C 
And all the things you do
                        G 
And it was called yellow

                      D 
So then I took my turn
                           C 
Oh what a thing to have done
                     G 
And it was all yellow

 C 
Your skin
 Em D 
Oh yeah your skin and bones
 C Em D    
Turn into something beautiful
 C Em D 
You know you know I love you so
C                      G (carry on to next verse)
You know I love you so

 G 
I swam across
                   D 
I jumped across for you
                    C 
Oh what a thing to do
                        G 
Cause you were all yellow

 G 
I drew a line
                 D 
I drew a line for you
                    C 
Oh what a thing to do
                     G 
And it was all yellow

 C 
Your skin
 Em D 
Oh yeah your skin and bones
 C Em D 
Turn into something beautiful
 C Em D C 
You know for you I'd bleed myself dry
                           G 
For you I'd bleed myself dry

(carry on as if it were a verse with the progression G D C G)

      G D 
It's true look how they shine for you
                         C 
Look how they shine for you
                         G 
Look how they shine for...
                         D 
Look how they shine for you
                         C 
Look how they shine for you

Look how they shine
  
 G D 
Look at the stars look how they shine for you
                           C G 
And all the things that you do








This is is my first tab and one of the first songs I learned to play, enjoy! :-) 

Philosophy chords – Ben Folds Five Vsion 2

 INTRO  
 C Cmaj7 C7 C6 Dm7 G Dm7 G C Cmaj7 C7 C6 Dm7 G Dm7 G C F 
Won't you look up at the skyline
        C Em 
At the mortar, block, and glass
     F D/F# G 
And check out the reflections in my eyes
          C F 
See they always used to be there
      C Em 
Even when this was all was grass
       F D/F# G 
And I sang and danced about a high-rise

(Pre-Chrous)
              F G 
And you were laughing at my helmet hat
 F Dm7 G  
Laughing at my torch

(Chorus)
 C Cmaj7 C7 
Go ahead and laugh all you want
   C6 Dm7 G Dm7 G    
I got my philosophy
               C 
And I trust it like the ground
  C6 Dm7 G   
That's why my philosophy
          Dm7 G C/G G7    
Keeps me walking when I'm falling down

(Verse2)
    C F 
I see that there is evil
       C Em 
And I know that there is good
           F D/F# G   
And the in-betweens I never understood
           C F 
Would you look at me I'm crazy
       C Em 
But I get the job done
    F D/F# G 
I'm crazy but I get the job done


(Chorus)
 C Cmaj7 C7 
Go ahead and laugh all you want
   C6 Dm7 G Dm7 G    
I got my philosophy
               C Cmaj7 C7 
And I trust it like the ground
  C6 Dm7 G    
That's why my philosophy
          Dm7 G C/G G7    
Keeps me walking when I'm falling down

(Bridge)
 Am Eaug/G# 
I pushed you cause I loved you guys
 Am7/G Am6/E 
I didn't realize
                  Gm C Bb C Bb C Bb   
That you weren't having fun
       F                  
And I dragged you up the stairs
       G 
And I told you to fly
          F 
You were flapping your arms
          G Am 
Then you started to cry, you were too high
     Bb 
Too highhhhhh


 C Cmaj7 C7 C6 Dm7 G Dm7 G  

(Verse 3)
         C F 
Now you take this all for granted
              C Em 
You take the mortar, block, and glass
          F D/F# G 
And you forget the speech that moved the stone
          C F     
And it's really not that you can't see
     C Em 
The forest from the trees
  F D/F# G 
You just never been out in the woods alone


(Chorus)
 C Cmaj7 C7 
So you can laugh all you want to
     C6 Dm7 G Dm7 G   
But I've got my philosophy
                C Cmaj7 C6 
And I love you you're my friend
                  Dm7 G      
But you got no philosophy
         Dm7 <span

Bullfight Tabs – Women Vsion 2

 -------------------------------------------------------------------------------
                             Bullfight - Women
-------------------------------------------------------------------------------
: me, with help from the original tab by ZorakIsStained.

Tuning: Both guitars are in Standard.

INTRO: [0:00-0:41]

Guitar 1: [comes in at 0:27]
e|----7----7-----|
B|----8----8-----|
G|---------------| x8
D|---------------|
A|---------------|
E|---------------|

VERSE 1: [0:41-0:56]

Guitar 1:
e|----7-----7-----|----10--|----8-----8-----|----8-----8-----|
B|----8-----8-----|----12--|----10----10----|----10----10----|
G|----------------|--------|----------------|----------------|  x2
D|----------------|--------|----------------|----------------|
A|----------------|--------|----------------|----------------|
E|----------------|--------|----------------|----------------|

Guitar 2:
e|----------------|--------|-13--13--13--13-|-13--13--13--13-|
B|----------------|--------|-13--13--13--13-|-13--13--13--13-|
G|----------------|-----16-|-14--14--14--14-|-14--14--14--14-|  x2
D|----------------|-19--19-|-15--15--15--15-|-15--15--15--15-|
A|-19--19--19-----|-0---0--|-15--15--15--15-|-15--15--15--15-|
E|-0---0---0------|--------|----------------|----------------|

CHORUS: [0:56-1:03]

Guitar 1:
e|----------------|--------|----------------|----------------|
B|----------------|--------|---------3------|-3--------------|
G|----------------|--------|-------------5--|-4--------------|  
D|-10--10--10--10-|-7---7--|-5---5----------|-5--------------|
A|-10--10--10--10-|-7---7--|-5---5----------|-5--------------|
E|-8---8---8---8--|-5---5--|-3---3----------|----------------| 

Guitar 2:
e|----------------|--------|-15--15--15--15-|-15--15--15--15-|
B|-13--13--13--13-|-13--13-|-0---0---0---0--|-0---0---0---0--|
G|-0---0---0---0--|-14--14-|-0---0---0---0--|-0---0---0---0--|  
D|-14--14--14--14-|-14--14-|-0---0---0---0--|-0---0---0---0--|
A|-15--15--15--15-|-0---0--|-14--14--14--14-|-14--14--14--14-|
E|----------------|--------|-15--15--15--15-|-15--15--15--15-|

VERSE 2: [1:03-1:18]

Guitar 1:
e|----7-----7-----|----10--|----8-----8-----|----8-----8-----|
B|----8-----8-----|----12--|----10----10----|----10----10----|
G|----------------|--------|----------------|----------------|  x2
D|----------------|--------|----------------|----------------|
A|----------------|--------|----------------|----------------|
E|----------------|--------|----------------|----------------|

Guitar 2:
e|----------------|--------|-13--13--13--13-|-13--13--13--13-|
B|----------------|--------|-13--13--13--13-|-13--13--13--13-|
G|----------------|-16--16-|-14--14--14--14-|-14--14--14--14-|  x2
D|----------------|-19--19-|-15--15--15--15-|-15--15--15--15-|
A|-19-----19--19--|-0---0--|-15--15--15--15-|-15--15--15--15-|
E|-0------0---0---|--------|----------------|----------------|

CHORUS: [1:18-1:43]

Guitar 1:
e|----------------|--------|----------------|-------------|
B|----------------|--------|-3--------------|-------------|
G|----------------|-5---5--|-4--------------|-------------|  
D|-10--10--10--10-|-7---7--|-5--------------|-------------|
A|-10--10--10--10-|-7---7--|-5--------------|-------------|
E|-8---8---8---8--|-5---5--|-3--------------|-------------| 

Guitar 2:
e|----------------|--------|-15--15--15--15-|-15--15--15--|
B|-13--13--13--13-|-13--13-|-0---0---0---0--|-0---0---0---|
G|-0---0---0---0--|-14--14-|-0---0---0---0--|-0---0---0---|  
D|-14--14--14--14-|-14--14-|-0---0---0---0--|-0---0---0---|
A|-15--15--15--15-|-0---0--|-14--14--14--14-|-14--14--14--|
E|----------------|--------|-15--15--15--15-|-15--15--15--|

Guitar 1:
e|----------------|-------------------------|        |-------------------------|
B|----------------|-------------------------|        |-------------------------|
G|----------------|-------------------------|        |-------------------------|
D|-12---------10--|-3--3--3--3--3--3--3--3--|   x2   |-3--3--3--3--3--3

I Aint No Nice Guy chords – Motörhead Vsion 4

 I Ain't No Nice Guy by Motörhead

 Máirt

This version is with the musically correct chord shapes and names taking into account that the tuning is
down a Half-Step. Version 2 is my work too and may be less confusing for beginners. For the sake of accuracy
though, here's this one.

Tuning: Down a half step -  D# G# C# F# A# D# 

Intro

 G# D# C#  x2

Verse

 G# D# C# 
When I was young I was the nicest guy I knew

 G# F# C# 
I thought I was the chosen one

 G# D# C# 
But time went by and I found out a thing or two

 G# F# C# 
My shine wore off as time wore on

 G# D# C# 
I thought that I was living out the perfect life

 G# F# C# 
But in the lonely hours when the truth begins to surprise

 G# D# C# 
I thought about the times when I turned my back and sulked

 G# F# C# 
I ain't no nice guy after all


The Second verse is the same chords and there is an extra line...

When I was young I was the only game in town
I thought I had it down for sure,
But time went by and I was lost in what I found
The reasons blurred, the way unsure
I thought that I was living life the only way
But as I saw that life was more than day to day
I turned around, I read the writing on the wall

I ain't no nice guy after all

 G# F# G# 
I ain't no nice guy after all


Bridge

 F A# 
In all the years you spend between your birth and death

 F A# 
You know there's lots of times when you should have saved your breath

 D# G# 
It comes as quite a shock when that trip leads to a fall

            F# C# 
I ain't no nice guy after all

 G# F# G# 
I ain't no nice guy after all


Solo

 F A# F A# D# G# C# G# F# G# 

The third verse is the first verse repeated but with the added line...

 G# F#               (C#)G#
I ain't no nice guy after all

Forget The Swan chords – Dinosaur Jr. Vsion 2

 Song: Forget the Swan
 Dinosaur Jr.
 Dinosaur (1985)

=================================================================

Chords:

 Am  - (x02210)
 Em  - (022000)
 D   - (xx0232)
 G   - (32000x)
B  - (x24442) - (if it makes you more comfortable, playing a x2444x is fine)
 C   - (x32010)
 Fmaj7  - (x33210)
Gadd11 - (32001x)

=================================================================


 Am Em Am Em 
It's floating through the abyss
 Am Em D G 
Under the bridge my head swings down
 Am Em Am Em 
Beware her wrath, the image gone
 Am Em D G 
The shell is crumbling, fix my frown


 B C D C  
This spell would be clear in non-tradition
     B C D C  
And stepping on these pieces of pain and smirk
    B C D C  
And rape goes through to sin my eyes
     B C D C 
And shapes know where the heartache will lurk


 Am Em Fmaj7    Gadd11
Forget the swan, a stone swims near
 Am Em Fmaj7    Gadd11
A stone has come, if I could cheer
 Am Em Fmaj7    Gadd11
Forget the swan
 Am Em Fmaj7    Gadd11
Forget the swan


 Am Em Am Em 
Drifting among this rubble
 Am Em D G 
I guess the waiting, wished I would
 Am Em Am Em 
I found a box, untethered and true
 Am Em D G 
Possession it understood


Instrumental:  B C D C Am Em Fmaj7    Gadd11
Forget the swan, a stone swims near
 Am Em Fmaj7    Gadd11
A stone has come, if I could cheer
 Am Em Fmaj7    Gadd11
Forget the swan
 Am Em Fmaj7    Gadd11
Forget the swan


 G Am 
How I tried to warn my neighbor
 G Am 
But the corn was much too high
 G Am 
In confusion up and threw him, woke up every day
 G Am 
But it's not too late brother, I'll still say you were mine


 Am Em Fmaj7    Gadd11
Forget the swan, a stone swims near
 Am Em Fmaj7    Gadd11
A stone has come, if I could cheer
 Am Em Fmaj7    Gadd11
Forget the swan
 Am Em Fmaj7    Gadd11
Forget the swan

 Am Em Fmaj7 
Forget the swan, the dreams are gone
              Gadd11          Am
The pain goes on, they fly at dawn


Instrumental:  Am Em Fmaj7   Gadd11

 Am Em Fmaj7   Gadd11
Forget the swan
 Am Em Fmaj7   Gadd11
Forget the swan
 Am Em Fmaj7   Gadd11
Forget the swan
 Am Em Fmaj7   Gadd11
Forget the swan

Ending: Am

Longing For Lullabies chords – Kleerup Vsion 2

 ORDER: I V1 C INT1 V2 C INT2 O


[INTRO]
 D C  | |  D Em  |  C  |

 Em D  | |  G C  | |
 Em D  | |  G C  | |
 Em D  | |  G C  | |
 Em D  | |  G C  | |


[VERSE 1]
 Em D G C 
Someday, as I look at the sun
   Em D 
I think of you
            D/F# G C 
And traces we   leave behind
 Em D 
Like a fallen piece we'll make a better start
     G C 
But still end up alone
 Em D 
Looking down upon a place inside our heart
   G C 
Dividing us in two


[CHORUS]
 Em D G C 
Somewhere, all that we leave behind
 Em D G C 
Lingers on, longing for lullabies
     Em D 
You live, you learn
     Bm7 C 
You love, you burn
     Em D 
You win, you lose
   G A 
Becoming you


[INTERLUDE 1]
 Em D  | |


[VERSE 2]
 Em D G C 
Someday, when I cry in the rain
   Em D 
I think of you
                 G C 
Looking through eyes of pain
 Em D 
Passing on a feeling that we can't deny
 G C 
Over on to you
 Em D 
Fading memory is soon becoming blind
   G C 
Dividing us in two


[CHORUS]
 Em D G C 
Somewhere, all that we leave behind
 Em D G C 
Lingers on, longing for lullabies
     Em D 
You live, you learn
     G C 
You love, you burn
     Em D 
You win, you lose
   G A 
Becoming you


[INTERLUDE 2]
 Em  | |  A  | |
  C  | |


[OUTRO]
 Em D  | |  G C  | |
 Em D  | |  G C  | |
 Em D  | |  G C  | |
 Em D  | |  G C  | | |

All I Wanna Do Is Make Love To You chords – Heart Vsion 2

 Intro:  G C G C G Bm 
1. It was a rainy night when he came into sight,
 C G 
standing by the road, no umbrella, no coat.
                                 Bm 
So I pulled up along side and I offered him a ride,
    C D 
he accepted with a smile, so we drove for a while.

          G Em 
I didn't ask him his name, this lonely boy in the rain.
      C 
Fate tell me it's right, is this love at first sight.
         D 
Please, don't make it wrong, just stay for the night.

Refr.:
 G C 
All I wanna do is make love to you. Say you will you want me, too.
 G C 
All I wanna do is make love to you. I've got lovin' arms to hold on to.

          G Bm 
2. So we found this hotel, it was a place I knew well.
    C G 
We made magic that night. Oh, he did everything right.
                                         Bm 
He brought the woman out of me, so many times, easily.
            C D 
And in the morning when he woke, all I left him was a note.

            G 
I told him I am the flower you are the seed,
    Em 
we walked in the garden, we planted a tree.
       C 
Don't try to find me, please don't you dare,
      D 
just live in my memory, you'll always be there.

Refr. 2:
 G C 
All I wanna do is make love to you, one night of love was all we knew.
 G C 
All I wanna do is make love to you, I've got lovin' arms to hold on to
 D Em 
Oh, oooh, we made love, love like strangers.
 C G 
All night long we made love.

    G Bm 
3. Then it happened one day, we came round the same way.
 C G 
You can imagine his surprise when he saw his own eyes.
        Bm 
I said please, please understand, I'm in love with another man.
 C D 
And what he couldn't give me, was the one little thing that you can.

Refr. 3:
 G C 
All I wanna do is make love to you, one night of love was all we knew.
 G 
All I want to do is make love to you.
 C 
Come on, say you will, you want me, too.

Refr. 3:
 G C 
All I wanna do is make love to you, one night of love was all we knew.
 G 
All I want to do is make love to you.
 C 
Come on, say you will, you want me, too.

Highway Patrolman chords – Johnny Cash Vsion 3

 HIGHWAY PATROLMAN       -       Johnny Cash

Capo on 2nd 

Intro:
G      4x 

 G G                               
    My name is Joe     Roberts 
 C G                             
    I work for the    state 
        G G                     
I'm a    sergeant out of     Perrineville 
 G D7 D7                    
    Barracks number     eight  
    G G                         
I     always done an     honest job 
 C G                                
    Honest as I     could 
 G D7                        
    Got a brother named     Frankie 
 D7 G G                    
    Frankie ain't no     good  


 G G                         
    Ever since we were     young kids 
 C G                    
    It’s been the same come     down 
 G G                        
    I get a call on the    shortwave 
 G D7 D7         
    Frankie's in trouble down -     town  
       G G                        
Well    if it was any    other man 
 C G                   
    I'd put him straight a -    way 
      G D7              
But    sometimes when it's your     brother 
 D7 G G                   
    You look the other     way  


Chorus:
        C G         
Yeah     me and Frankie laughin' and     drinkin' 
                C G       
Nothin' feels     better than blood on     blood 
         C G            
Takin'    turns dancin' with Ma -     ria 
            G G                
While the    band played "the    Night of the 
            D7 D7                          
Johnstown     Flood"  

 G G                      
    I catch him when he's    strayin' 
 C G                           
    Like any brother    should 
 G D7                  
    Man turns his back on his    family 
 D7 G G                          
    He ain't no    good  


       G G                  
Well    Frankie went in the     army 
          C G                   
Back in    nineteensixty -    five 
 G G                          
    I got a farm de -    ferment, 
          G D7 D7    
Settled    down, took Maria for my     wife  
           G G             
But them    wheat prices kept on    droppin' 
              C G          
Till it was    like we were gettin'    robbed 
 G D7                       
    Frankie came home in     sixtyeight 
 D7 G                             
    Me, I took this    job 


Chorus:
       C G          
Yeah    me and Frankie laughin' and    drinkin' 
                C G        
Nothin' feels    better than blood on    blood 
 C G             
    Takin' turns dancin' with Ma -    ria 
                             G                  
While the band played "the    Night of the 
           D7 D7                           
Johnstown    Flood"  

 G G                      
    I catch him when he's    strayin' 
 C G                 
    Teach him how to walk that    line 
 G D7                  
    Man turns his 

Fade Tabs – Alan Walker Vsion 1

 -------------------------------------------------------------------------------
                             FADE - ALAN WALKER
-------------------------------------------------------------------------------
:Daniel Hwang

Tuning:Standard (EADGBE)

e|-2-2-2-2/6--6/11-11-11-11--9/6-6-6-6-6--------------------------------------------------------|
B|--------------------------------------6-6-6-6-------------------------------------------------|
G|----------------------------------------------------------------------------------------------|
D|----------------------------------------------------------------------------------------------|
A|----------------------------------------------------------------------------------------------|
E|----------------------------------------------------------------------------------------------|
                                                              
e|-2-2-2-2/6--6/11-11-11-11--9/6-6-6-6-6--------------------------------------------------------|
B|--------------------------------------6--6--6--6--6--6--6-6-6-6-------------------------------|
G|----------------------------------------------------------------------------------------------|
D|----------------------------------------------------------------------------------------------|
A|----------------------------------------------------------------------------------------------|
E|----------------------------------------------------------------------------------------------|
                                                                                                 
e|-2-2-2-2-2-2--6-6-6-6/11--11-11-11-11-11-11--9-9--6--6--6--6--6--6--6-6-6-6-------------------|
B|---------------------------------------------------------------------------6-6-6-6-6-6-6-6----|
G|----------------------------------------------------------------------------------------------|
D|----------------------------------------------------------------------------------------------|
A|----------------------------------------------------------------------------------------------|
E|----------------------------------------------------------------------------------------------|

e|-2-2-2-2--6-6--14-14-13-13--11-11-11--9-9-9--4-4--6-6-6-6--9-7-6-4-2-4--4-4-4-4---------------|
B|----------------------------------------------------------------------------------------------|
G|----------------------------------------------------------------------------------------------|
D|----------------------------------------------------------------------------------------------|
A|----------------------------------------------------------------------------------------------|
E|----------------------------------------------------------------------------------------------|
                                                  
e|-4-4--1-1--2-2-2-2--6-6--14-14-13-13--11-11-11--9-9-9--4-4--6-6-6-6--9-7-6-4-1----------------|
B|----------------------------------------------------------------------------------------------|
G|----------------------------------------------------------------------------------------------|
D|----------------------------------------------------------------------------------------------|
A|----------------------------------------------------------------------------------------------|
E|----------------------------------------------------------------------------------------------|

e|-2-2--4--2-2-2-2-2--6-6--14-14-13-13--11-11-11--9-9-9--4-4--6-6-6-6--9-7-6-4-1-4--4-4-4-4-----|
B|----------------------------------------------------------------------------------------------|
G|----------------------------------------------------------------------------------------------|
D|----------------------------------------------------------------------------------------------|
A|----------------------------------------------------------------------------------------------|
E|----------------------------------------------------------------------------------------

Two Dozen Roses chords – Shenandoah Vsion 2

 Two Dozen Roses – Shenandoah – Capo 2

Intro
 G D C D G G C D G C D 
I brought flowers to your door last night
 G C D G C D 
I done you wrong and I want to make it right
 Em G  
You say I'm not welcome here
 D Em C 
I know it oughta be perfectly clear
     G D C D G       
But I can't help but wonder what it might be like 

          C D Em C D G 
If I had two dozen roses, and an open bottle of wine
      Em D C D G 
If I really could've hung the moon, would it change your mind? 
            C D Em C D G                     
If I could cry a little harder, and get a little less sleep at night
          Em D C D G       
If I had two dozen roses would it change your mind?

Repeat Intro

 G C D G C D 
I must have been a fool back then
 G C D G C D   
To lose something that you can't have again 
 Em G     
I've done all that I know to do
 D Em C 
And second guessed my every move
     G D C D G 
But I can't help but wonder what it might have been 

          C D Em C D G 
If I had Two dozen roses, and an open bottle of wine
      Em D C D G 
If I really could've hung the moon, would it change your mind? 
            C D Em C D G                     
If I could cry a little harder, and get a little less sleep at night
          Em D C D G       
If I had two dozen roses would it change your mind?


Solo

            C D Em C D G                     
If I could cry a little harder, and get a little less sleep at night
          Em D C D D       
If I had two dozen roses would it change your mind?


Rpt and fade

Words Of Love Tabs – The Mamas & The Papas Vsion 1

 WORDS OF LOVE

As recorded by The Mamas & The Papas
(From the 1966 Album THE MAMAS & THE PAPAS)

Words and Music by John Phillips

 Slowhand


Gtr I (E A D G B E) - 'John Phillips - Electric Guitar'


 Intro
 Shuffle Q=112(8=s8)
                        E          Abm/Eb       Dbm            Eb   Ab
 4/4
  Gtr I (Clean El. Gtr.)
  W          W           E  E  E E  E  E  E E    E  E  E  E  E  E E E
|----------|----------|-12-12-12-x-11-11-11-x-|--9--9--9--9--9-11---4--|
|----------|----------|-12-12-12-x-12-12-12-x-|--9--9--9--9--9-11---4--|
|----------|----------|-13-13-13-x-13-13-13-x-|--9--9--9--9--9-12---5--|
|----------|----------|-14-14-14-x-13-13-13-x-|-11-11-11-11-11-13---6--|
|----------|----------|-----------------------|------------------------|
|----------|----------|-----------------------|------------------------|


                                        1st Verse
                      Eb7                Ab7               Gb7
  +E  E E E E E E E   E E E E E E E E    E E E E E E E E   E E E E E E E E
|-(4)-4-4-x-4-4-4-x-|-----------------||-4-4-4-x-4-4-4-x-|-2-2-2-x-2-2-2-x--|
|-(4)-4-4-x-4-4-4-x-|-4-4-4-x-4-4-4-x-||-4-4-4-x-4-4-4-x-|-2-2-2-x-2-2-2-x--|
|-(5)-5-5-x-5-5-5-x-|-6-6-6-x-6-6-6-x-||-5-5-5-x-5-5-5-x-|-3-3-3-x-3-3-3-x--|
|-(6)-6-6-x-6-6-6-x-|-5-5-5-x-5-5-5-x-||-4-4-4-x-4-4-4-x-|-2-2-2-x-2-2-2-x--|
|-------------------|-6-6-6-x-6-6-6-x-||-6-6-6-x-6-6-6-x-|-4-4-4-x-4-4-4-x--|
|-------------------|-----------------||-4-4-4-x-4-4-4-x-|-2-2-2-x-2-2-2-x--|


  Cb7               Bb7     Eb7       Ab7               Gb7
  E E E E E E E E   E E E E E E E E   E E E E E E E E   E E E E E E E E
|-7-7-7-x-7-7-7-x-|-6-6-6-x---------|-4-4-4-x-4-4-4-x-|-2-2-2-x-2-2-2-x--|
|-7-7-7-x-7-7-7-x-|-6-6-6-x-4-4-4-x-|-4-4-4-x-4-4-4-x-|-2-2-2-x-2-2-2-x--|
|-8-8-8-x-8-8-8-x-|-7-7-7-x-6-6-6-x-|-5-5-5-x-5-5-5-x-|-3-3-3-x-3-3-3-x--|
|-7-7-7-x-7-7-7-x-|-6-6-6-x-5-5-5-x-|-4-4-4-x-4-4-4-x-|-2-2-2-x-2-2-2-x--|
|-9-9-9-x-9-9-9-x-|-8-8-8-x-6-6-6-x-|-6-6-6-x-6-6-6-x-|-4-4-4-x-4-4-4-x--|
|-7-7-7-x-7-7-7-x-|-6-6-6-x---------|-4-4-4-x-4-4-4-x-|-2-2-2-x-2-2-2-x--|


  Cb7               Bb7               Ab7               Gb7
  E E E E E E E E   E E E E E E E E   E E E E E E E E   E E E E E E E E
|-7-7-7-x-7-7-7-x-|-6-6-6-x-6-6-6-x-|-4-4-4-x-4-4-4-x-|-2-2-2-x-2-2-2-x--|
|-7-7-7-x-7-7-7-x-|-6-6-6-x-6-6-6-x-|-4-4-4-x-4-4-4-x-|-2-2-2-x-2-2-2-x--|
|-8-8-8-x-8-8-8-x-|-7-7-7-x-7-7-7-x-|-5-5-5-x-5-5-5-x-|-3-3-3-x-3-3-3-x--|
|-7-7-7-x-7-7-7-x-|-6-6-6-x-6-6-6-x-|-4-4-4-x-4-4-4-x-|-2-2-2-x-2-2-2-x--|
|-9-9-9-x-9-9-9-x-|-8-8-8-x-8-8-8-x-|-6-6-6-x-6-6-6-x-|-4-4-4-x-4-4-4-x--|
|-7-7-7-x-7-7-7-x-|-6-6-6-x-6-6-6-x-|-4-4-4-x-4-4-4-x-|-2-2-2-x-2-2-2-x--|


  Cb7               Bb7     A7       Ab7              Gb7
  E E E E E E E E   E E E E E E Q    E E E E E E Q    E E E E E E Q
|-7-7-7-x-7-7-7-x-|-6-6-6-6-5------|-4-4-4-4-4------|-2-2-2-2-2-------|
|-7-7-7-x-7-7-7-x-|-6-6-6-6-5------|-4-4-4-4-4------|-2-2-2-2-2-------|
|-8-8-8-x-8-8-8-x-|-7-7-7-7-6------|-5-5-5-5-5------|-3-3-3-3-3-------|
|-7-7-7-x-7-7-7-x-|-6-6-6-6-5------|-4-4-4-4-4------|-2-2-2-2-2-------|
|-9-9-9-x-9-9-9-x-|-8-8-8-8-7------|-6-6-6-6-6------|-4-4-4-4-4-------|
|-7-7-7-x-7-7-7-x-|-6-6-6-6-5------|-4-4-4-4-4------|-2-2-2-2-2-------|


                                    Bridge
                                  Straight Q=112
  E7               Eb7               Fm              Bbm
  E E E E E E Q    E E E E E E Q     Q  E E E Q  E   Q  E E E Q  E
|----------------|----------------||-1--1-1-1-1--1-|-1--1-1-1-1--1--|
|-5-5-5-5-5------|-4-4-4-4-4------||-1--1-1-1-1--1-|-2--2-2-2-2--2--|
|-7-7-7-7-7------|-6-6-6-6-6------||-1--1-1-1-1--1-|-3--3-3-3-3--3--|
|-6-6-6-6-6------|-5-5-5-5-5------||-3--3-3-3-3--3-|-3--3-3-3-3--3--|
|-7-7-7-7-7------|-6-6-6-6-6------||-3--3-3-3-3--3-|-1--1-1-1-1--1--|
|----------------|----------------||-1--1-1-1-1--1-|----------------|


                                Shuffle Q=112(8=s8)
  Gb              Eb7             Ab7             Gb7
  Q  E E

All I Know chords – Art Garfunkel Vsion 3

 I play it with capo @ 6

intro
%  G C D G G C D G D C D Cmaj7 G C Bm D G G C 
I bruise you
 D G 
You bruise me
 G C D G 
We both bruise too easily
     D C D Cmaj7  %    G 
Too easily to let it show
    C Bm D7 G 
I love you and that's all I know

 G C 
All my plans
 D G 
Have fallen through
 G C D G 
All my plans depend on you
     D C D Cmaj7  %    G  
Depend on you to help them grow
    C Bm D7 G 
I love you and that's all I know

        Chorus 
          Bm Em 
When the singer's gone
   | G D C D Cmaj7 Cadd9 
Let the song go on...


 G C 
But the ending always 
 D G 
comes at last
 G C D G 
Endings always come too fast
     D C D Cmaj7  %    G 
They come too fast  But they pass to slow
    C Bm D7 G 
I love you and that's all I know

  Em Dm Em C 
When the singer's gone, let the song go on.
       
 F C G C 
It's a fine line between the darkness and the dawn.
     
 F C F G 
They say in the darkest night, there's a light beyond.

 G C F G C F G C 
But the ending always comes at last. Endings always come too fast.
      G Dm G F 
They come too fast, but they pass too slow.
 C F G C F 
I love you and that's all       I know.
              C G F 
That's all I know.
              C G F 
That's all I know-oh,  oh-oh.

Outtro:  Repeat and fade    C    G      F
                            Oh   oh,    oh.

Follow You Follow Me chords – Genesis Vsion 3

 FOLLOW YOU FOLLOW ME    -       Genesis

Intro:
e|-----------------------------/-----------------------------/
B|-----------------------------/-----------------------------/
G|--2-----0-----4-----2-----0--/--5-----4-----2-----0-----2--/
D|0---0-0---0-0---0-0---0-0---0/0---0-0---0-0---0-0---0-0---0/
A|-----------------------------/-----------------------------/
E|-----------------------------/-----------------------------/

 G  -  Gmaj7  - G6sus4 -  Gmaj7       2x 

 G                                               
     Stay 
       Am                                          
With     me 
     G Am7                         
My    love I hope you'll      always be
 Dm7                                               
     Right here 
         G7                                        
By my      side
           Cadd4        C                              
If ever I         need     you 
 C/D D                                         
     oh my     love
 G Am                                       
In your     arms 
    G Am7                           
I     feel so safe and      so secure
 Dm7                                               
     Every day 
     G7                                            
Is     such a perfect 
Cadd4         C                                       
       Day to    spend 
 C/D D                                    
     Alone with     you I will


Chorus:
 G Gmaj7                                       
    Follow         you will you 
 C/G D                                        
     Follow     me All the 
 G Gmaj7                                     
    Days and         nights that we 
 C/G D                                    
      Kn ow will     be I will 
 G Am7                                    
    Stay with       you will you
 D B7                                    
    Stay with     me just one
 Em Em9/D                                       
     Single         tear in each 
 C D                                      
    Passing     year


 G Am                                     
    With the      dark 
       G Am7                             
Oh I     see so very       clearly now
 Dm7                                               
      All my fears 
      G7                     Cadd4          C                  
Are     drifting by me so        slowly     now 
 C/D D                                   
      Fading a -    way
 G Am                                         
I can     see 
      G Am7                         
The     night is long but      you are here
 Dm7                                               
      Close at hand though 
      G7                   Cadd4            C                 
I'm      better for the        smile you     give, 
 C/D D                                   
     And while I     live I will


Chorus:
 G Gmaj7                                       
    Follow         you will you 
 C/G D                                       
      Follow     me All the 
 G Gmaj7                                     
    Days and         nights that we 
 C/G D                                    
      Know will     be I will 
 G Am7            

Hosanna Tabs – Hillsongs Vsion 4

 -------------------------------------------------------------------------------
                             Hosanna - Hillsong Global
-------------------------------------------------------------------------------
 Hillsong Global
: andrewbishop

Tuning: Standard

Heard this different version of Hosanna, totally like the guitar parts, kinda brings new texture to the song.
The songs consists of the parts below and of course the chords, but here just the specific eguitar parts,
chords you will find on any website.

Intro:
e|---------------------------------------------------------------------------|
B|--14-----------16--------------------17------12--16------------------------|
G|--13---------------------11-13----13-------13------------------------------|
D|--11------11/14-----11-13-------14-------11--------------------------------|
A|---------------------------------------------------------------------------|
E|---------------------------------------------------------------------------|

e|------------------------------------------14-------------------------------|
B|--14-----------16--------------------17---14-------------------------------|
G|--13---------------------11-13----13---------------------------------------|
D|--11------11/14-----11-13-------14-----------------------------------------|
A|---------------------------------------------------------------------------|
E|---------------------------------------------------------------------------|

Verse -> Verse:
e|---------------------------------------------------------------------------|
B|--14---12---------9--------------------------------------------------------|
G|--13-----11-13----9--------------------------------------------------------|
D|--11--------------9--------------------------------------------------------|
A|---------------------------------------------------------------------------|
E|---------------------------------------------------------------------------|

Chorus: use some slightly notes from 


Bridge -> Solo:
e|---------------------------------------------------------------------------|
B|---14--------16-------17-------19------------------------------------------|
G|---13--------------------------------------Solo!---------------------------|
D|---11---11/13----13/14----14/16--------------------------------------------|
A|---------------------------------------------------------------------------|
E|---------------------------------------------------------------------------|
Can't really figure out the solo, I play somewhere around fret 14 and 16.

Bridge -> Bridge:
e|---------------------------------------------------------------------------|
B|--14---------16---------17---------19---------21---------------------------|
G|--x--(x4)----x--(x4)----x--(x4)----x--(x4)----x--(x16)---------------------|
D|--11---------13---------14---------16---------18---------------------------|
A|---------------------------------------------------------------------------|
E|---------------------------------------------------------------------------|

Outro:
e|---------------------------------------------------------------------------|
B|---------------------------------------------------------------12----------|
G|--13-13-11-13-----13-13-11--13/15\13----13-13-11-13----13-11/13------------|
D|---------------------------------------------------------------------------|
A|---------------------------------------------------------------------------|
E|---------------------------------------------------------------------------|


For this song I´m using:
Walrus Audio - Deep Six
Visual Sound VSXO
Strymon Timeline // Dotted 8th



god bless

Starry Eyed Acoustic intro Tabs – Ellie Goulding Vsion 2

 capo 1
Little noise session version

Awesome version of a very nice song :-)
listen to the song to hear which notes should be the loudest, since some are subtle and some are powerful.

watch: https://www.youtube.com/watch?v=EC_LtEuqF_E

the second line has some high notes from a synthesizer. Therefor the first Em and Em/G havebeen raised,
as to make the D string the bass-string.

tab and chords are relative to capo 1.

enjoy:

  Em                D                 Am7               Em/G
e|-----------------|--------2--------|-----------------|-----------------|
B|------0----------|------3----------|------1----------|------0---0------|
G|----------0------|----2------------|-----------------|-----------------|
D|-----------------|0-----------0-0--|--2-------2------|-----------------|
A|--2--------------|-----------------|0---0---------0--|--2--------------|
E|0----------------|-----------------|-----------------|3---3------------|

  Em                D                 Am7               Em/G
e|3----------------|--------2--------|-----------------|-----------------|
B|5-----0---0------|3-----3----------|1-----1----------|6----------------|
G|4----------------|2---2------------|0----------------|5----------------|
D|-----------------|------------0-0--|----------2------|6----------------|
A|-----------------|-----------------|--------------0--|-----------------|
E|-----------------|-----------------|-----------------|-----------------|




************************************

| /   slide up
| \   slide down
| h   hammer-on
| p   pull-off
| ~   vibrato
| +   harmonic
| x   Mute note
| b   Bend
| pb  Pre-bend
| br  Bend release
| pbr Pre-bend release
| brb Bend release bend

************************************

Frosty The Snowman chords – misc christmas Vsion 5

 Frosty the Snowman                                                      1+2+3+4+
                                                                        D DU UDU
G x3
Thumpety thump thump, thumpety thump thump, 
               D x4
Look at Frosty go. 

Thumpety thump thump, thumpety thump thump, 
                                               G x1
over the hills of snow...                                   Oh... 

Verse 1:
G x2                       C9 x1          G x1
Frosty the Snow Man, was a jolly happy soul 
       C9 x1                  G x1
With a corn-cob pipe and a button nose
        D x1                G x1
and two eyes made out of coal.


Verse 2:
G x2                      C9 x1              G x1
Frosty the Snow Man, is a fairy tale they say
       C9 x1                   G x1       
He was made of snow but the children know 
       D x1            G x1
how he came to life one day.


Bridge:
      C9 x1              C9/B x1         Amx1               G x1
There must have been some magic in that old silk hat they found,
    D x1             D x1       Em x1            D x1
For when they put it on his head he began to dance around.


Verse 3:
    G x2                        C9 x1              G x1
Oh, Frosty the Snow Man was alive as he could be, 
        C9 x1                    G x1                       
And the children say he could laugh and play 
         D x1       G x1
just the same as you and me.


Verse 4:
G x2                             C9 x1               G x1
Frosty the Snow Man,'  knew the sun was hot that day,
      C9 x1                          G x1                       
So he said, "Let's run  and we'll have some fun     
    D x1        G x1
now before I melt away."


Verse 5:
G x2                        C9 x1               G x1
Down to the village, with a broomstick in his hand,
        C9 x1                  G x1                       
Running here and there all around the square,
       D x1         G x1
saying "Catch me if you can."


Bridge 2:
   C9 x1              C9/B x1             Am x1            G x1
He led them down the streets of town right to the traffic cop,
       D x1            D x1          Em x1               D x1
And he only paused a moment when he heard him holler, "Stop!"


Verse 6:
G x2                         C9 x1           G x1
Frosty the Snow Man had to hurry on his way,
       C9 x1                        G x1                        
But he waved good-bye, saying, "Don't you cry;
      D x1           G x1
I'll be back again some day."


Ending:
G x3
Thumpety thump thump, thumpety thump thump, 
               D x4
Look at Frosty go. 

Thumpety thump thump, thumpety thump thump, 
                         G*(strum once)
over the hills of snow...