Tag: walker

Darkside chords by Alan Walker

[Intro]

Em D C G x2


[Verse 1]
  Em         D
We're not in love
C           G    D/F#
We share no stories
Em             D       C    G
Just something in your eyes
Em           D
Don't be afraid
C                G  D/F#
The shadows know me
Em              D        C
Let's leave the world behind


[Chorus]
Em       G
Take me through the night
 C            D
Fall into the dark side
Em                G
We don't need the light
      C           D
We'll live on the dark side
Em        G
I see it, let's feel it
C                 D
While we're still young and fearless
Em      G
Let go of the light
      C        D         Em    G
Fall into the dark side
     C        D          Em    G
Fall into the dark side
     C        D           Em    G   C   D
Give into the dark side
 Em       G
Let go of the light
C             D
Fall into the dark side


[Verse 2]
Em          D
Beneath the sky
C           G    D/F#
As black as diamonds
Em            D       C   G
We're running out of time
Em             D
Don't wait for truth
C           G     D/F#
To come and blind us
Em            D          C
Let's just believe their lies


[Pre-Chorus]
Em          D
Believe it, I see it
C            G
I know that you can feel it
Em         D
No secrets worth keeping
C
So fool me like I'm dreaming


[Chorus]
Em       G
Take me through the night
 C            D
Fall into the dark side
Em                G
We don't need the light
      C           D
We'll live on the dark side
Em        G
I see it, let's feel it
C                 D
While we're still young and fearless
Em     G
Let go of the light
      C        D         Em    G
Fall into the dark side
     C        D          Em    G
Fall into the dark side
     C        D           Em    G   C   D
Give into the dark side
 Em       G
Let go of the light
C             D
Fall into the dark side


[Chorus]
Em       G
Take me through the night
     C        D
Fall into the dark side
Em                G
We don't need the light
      C           D
We'll live on the dark side
Em        G
I see it, let's feel it
C                 D
While we're still young and fearless
Em      G
Let go of the light
      C        D
Fall into the dark side

Leave A Light On chords by Tom Walker

[Verse 1]
Dm
The second someone mentioned you were all alone
          A#
I could feel the trouble coursing through your veins
       F                C
Now I know, it's got a hold
        Dm
Just a phone called left unanswered, had me sparking up
         A#
These cigarettes won't stop me wondering where you are
          F           C
Don't let go, keep a hold

[Pre-Chorus]
        Dm
If you look into the distance, there's a house upon the hill
 A#
Guiding like a lighthouse to a place where you'll be
                  F
Safe to feel at grace 'cause we've all made mistakes
                     C
If you've lost your way...

[Chorus]
                       Dm A#
I will leave the light on
                       F  C
I will leave the light on
                       Dm A#
I will leave the light on
                       F  C
I will leave the light on

[Verse 2]
 Dm
Tell me what's been happening, what's been on your mind
 A#
Lately you've been searching for a darker place
    F              C
To hide, that's alright
           Dm
But if you carry on abusing, you'll be robbed from us
     A#
I refuse to lose another friend to drugs
           F              C
Just come home, don't let go

[Pre-Chorus]
        Dm
If you look into the distance, there's a house upon the hill
 A#
Guiding like a lighthouse to a place where you'll be
                  F
Safe to feel at grace 'cause we've all made mistakes
                     C
If you've lost your way...

[Chorus]
                       Dm A#
I will leave the light on
                       F  C
I will leave the light on
                       Dm A#
I will leave the light on
                       F  C
I will leave the light on

[Outro]
        Dm
If you look into the distance, there's a house upon the hill
 A#
Guiding like a lighthouse, it's a place where you'll be
                 F
Safe to feel at grace and if you've lost your way
                     C
If you've lost your way (I will leave the light on)
Dm
And I know you don't know oh, but I need you to be brave
A#
Hiding from the truth ain't gonna make this all okay
               F
I'll see your pain if you don't feel our grace
                       C
And you've lost your way
                       Dm  A#
I will leave the light on
C                       F  C
I will leave the light on
                                 A#
'Cause I will leave the light on

Fade Tabs – Alan Walker Vsion 1

 -------------------------------------------------------------------------------
                             FADE - ALAN WALKER
-------------------------------------------------------------------------------
:Daniel Hwang

Tuning:Standard (EADGBE)

e|-2-2-2-2/6--6/11-11-11-11--9/6-6-6-6-6--------------------------------------------------------|
B|--------------------------------------6-6-6-6-------------------------------------------------|
G|----------------------------------------------------------------------------------------------|
D|----------------------------------------------------------------------------------------------|
A|----------------------------------------------------------------------------------------------|
E|----------------------------------------------------------------------------------------------|
                                                              
e|-2-2-2-2/6--6/11-11-11-11--9/6-6-6-6-6--------------------------------------------------------|
B|--------------------------------------6--6--6--6--6--6--6-6-6-6-------------------------------|
G|----------------------------------------------------------------------------------------------|
D|----------------------------------------------------------------------------------------------|
A|----------------------------------------------------------------------------------------------|
E|----------------------------------------------------------------------------------------------|
                                                                                                 
e|-2-2-2-2-2-2--6-6-6-6/11--11-11-11-11-11-11--9-9--6--6--6--6--6--6--6-6-6-6-------------------|
B|---------------------------------------------------------------------------6-6-6-6-6-6-6-6----|
G|----------------------------------------------------------------------------------------------|
D|----------------------------------------------------------------------------------------------|
A|----------------------------------------------------------------------------------------------|
E|----------------------------------------------------------------------------------------------|

e|-2-2-2-2--6-6--14-14-13-13--11-11-11--9-9-9--4-4--6-6-6-6--9-7-6-4-2-4--4-4-4-4---------------|
B|----------------------------------------------------------------------------------------------|
G|----------------------------------------------------------------------------------------------|
D|----------------------------------------------------------------------------------------------|
A|----------------------------------------------------------------------------------------------|
E|----------------------------------------------------------------------------------------------|
                                                  
e|-4-4--1-1--2-2-2-2--6-6--14-14-13-13--11-11-11--9-9-9--4-4--6-6-6-6--9-7-6-4-1----------------|
B|----------------------------------------------------------------------------------------------|
G|----------------------------------------------------------------------------------------------|
D|----------------------------------------------------------------------------------------------|
A|----------------------------------------------------------------------------------------------|
E|----------------------------------------------------------------------------------------------|

e|-2-2--4--2-2-2-2-2--6-6--14-14-13-13--11-11-11--9-9-9--4-4--6-6-6-6--9-7-6-4-1-4--4-4-4-4-----|
B|----------------------------------------------------------------------------------------------|
G|----------------------------------------------------------------------------------------------|
D|----------------------------------------------------------------------------------------------|
A|----------------------------------------------------------------------------------------------|
E|----------------------------------------------------------------------------------------

Dumas Walker chords – The Kentucky Headhunters Vsion 2

 C 
Let's all go down to Dumas Walker

           F C 
Let's all go down to Dumas Walker

             G7 
We'll get a slaw burger fries and a bottle of ski

 C 
Bring it on out to my baby and me



Yeah we're headed to the drive-in on a Saturday night


Just me and my baby and a six-pack of lite

 F 
Got a pocketful of money and I'm raring to go

 C 
Down to Dumas Walker right after the show

 G7 F 
They'll be shooting marbles in the back of the store

 D7 G7 
And laying money down on the floor


 C 
Let's all go down to Dumas Walker

           F C 
Let's all go down to Dumas Walker

             G7 
We'll get a slaw burger fries and a bottle of ski

 C 
Bring it on out to my baby and me


 C 
He takes all his orders down one at a time

                  
Don't need a pad he's got a photogenic mind

 F 
He don't like the young folks hanging around

 C 
He's here to let ya know we got a law in this town

 G7 F 
You oughta see him reeling when he walks through the door

 D7 G7 
The marble king is ready for more


 C 
Let's all go down to Dumas Walker

           F C 
Let's all go down to Dumas Walker

             G7 
We'll get a slaw burger fries and a bottle of ski

 C 
Bring it on out to my baby and me

He Knows My Name chords – Tommy Walker V6

 INTRO

 E F#m7 E/G# A E/B Bsus B A 


VERSE I


 E F#m7 E/G# A 
I have a Ma----ker

 E/B B7sus B A/B 
He formed my heart

 E F#m7 E/G# A 
Before even time began

 E/B B       
My life was in his 

 E F#m7 E/G# 
hands.


CHORUS


 A E B E 
He knows my name

 A E B E 
He knows my every thought

 A E B C#m 
He sees each tear that falls and 

 A B E A/E 
hears me when I call


VERSE II


 E F#m7 E/G# A 
I have a Fa----ther

 E/B B7sus B A/B 
He calls me His own

 E F#m7 E/G# A 
He'll never leave me

 E/B B E F#m7 E/G# 
No matter where I go


CHORUS 

 A E B E 
He knows my name

 A E B E 
He knows my every thought

 A E B C#m 
He sees each tear that falls and 

 A B E A/E 
hears me when I call



YouTube:
https://www.youtube.com/channel/UCNEFmIlsMqKfPeImMgatD1A

Ultimate Guitar Profile:
http://profile.ultimate-guitar.com/Maestro_727

Guitar Lessons website:
http://gsguitarfun.weebly.com

George Salas is a public middle school guitar teacher and Praise & Worship leader. He is currently pursuing 
a Master's in Music Education.

Silent Night chords – Kim Walker

 Intro (2x)
 F ///|  Fma7 ///|  F ///|  Fma7 ///

Verse 1
 F Fma7 F Fma7 
Silent night, Holy night
 C F 
All is calm, all is bright
 Bb F 
Round yon virgin, mother and child 
 Bb F Dm 
Holy infant so tender and mild
 C Dm7 Dm7/C Bb Dm 
Sleep in heavenly pea - ce
 F/C Bb2 F 
Sleep in heavenly peace

Instrumental 1
 Am7 ///|  F ///|  Am7 ///

Verse 2
 F C/E Dm7 F/C  
Silent night, Holy night
 Bb C Dm7  
Shepherds quake, at the sight 
 Bb F Dm7  
Glories stream from heaven a far 
 Bb F Dm7  
Heavenly hosts sing Hallelu jah 
 Bb C Dm7 
Christ our Savior is born
 Bb C  FAm7 
Christ our Savior is born

Instrumental 2
( Am7 )///|  F ///|  Am ///|  Dm7 ///|  C ///|  Dm7 ///|  C ///| F ///|////

Verse 3
 F C/E Dm7 
Silent night, Holy night
 Bb C Dm7 
Son of God, love's pure light
 Bb F Dm7 Dm7/C 
Radiant beams from thy holy face 
 Bb F Dm7  
With the dawn of redeeming grace 
 Bb C Dm7 Dm7/C  
Jesus, Lord at thy birth
 Bb C F Am7 F  
Jesus, Lord at thy birth

Ending
 Am7 ///|  Dm7 ///|  C ///  Dm7  / / / |  C  / / / |  F  / / /

Slim Chance And The Cant Hardly Playboys chords – Jerry Jeff Walker

 INTRO:  G D A7 D D G D 
Slim Chance and the Can't Hardly Playboys are pickin' at your local saloon
                G D A7 
They got a new song out on Polish Records, it'll be a Polish hit real soon
       D G D 
They picked every honky-tonk and bar from here to Timbuktu
      G D A7 D 
Slim Chance and the Can't Hardly Playboys are bustin' their butts for you

 D G D 
Out where the cars are up on blocks and the houses are on wheels
 G D A7 
Slim and a big time bookin' agent, they cooked up a hell of a deal
        D G D 
They'd pick every Wal-Mart parkin' lot across the USA
        G D A7 D 
If the Good Lord's willin' and the creek don't rise and they figure out how to get paid

   G (let ring)                   D
No Chance was the only chance the Playboys ever had
                                                           A7 
No matter how they picked 'em, everything they played was bad
      D G D 
Then Slim come along and he played the songs that stick right in your head
      G D A7 D 
Slim Chance and the Can't Hardly Playboys are really a-knockin' 'em dead


SOLO

 D G D 
Esmeralda Muckinfuch was Slim's good timin' gal
     G D A7 
She wasn't much to look at but Slim loved her anyhow
              D G D 
You couldn't beat her when she's sober, but you had to when she's drunk
        G D A7 D 
We all called her the Country Kitty, 'cause she smelled just like a what in the world was that?

     G (let ring)               D
Slim Chance could be anyone who hangs out in a bar
                                         A7 
Or any local yokel who sings and plays guitar
         D G D 
All the boys and girls around the world now they know who they are
      G D A7 D 
Slim Chance is about the best chance that they got to be a star


SPOKEN:
 D G D 
Yesterday I couldn't even spell star, and now I are one
         G D 
I say I ain't but a star I are
                                       A7 
Do they not know who we think we are?
                                        
I'm tellin' ya we're gonna get 500 a gig or we ain't playin!
 D  
I think we need some of them w***es dejours
                  G D 
And some of them carrots and other things people get in back of the stage
                             G D 
We need some of them little sausages on toothpicks, maybe a dressing room (that'd be good)


 A7 D

Coming Home Acoustic chords – Butch Walker V2

 *** NOTE: When playing A/G# and A/F# , the G# and F# are the bass notes/passing notes.
This has been tabbed to play along with the youtube post by Bananas Music Club 
(http://youtu.be/DGqYtvZzGrg).
Upon listening you can hear when to play the G# and F# bass notes/passing notes.

Standard Tuning, No Capo

Enjoy!


Intro

 A 


Verse I

 A 
Singing from a ditch with a seat belt on
                                          A/G# 
Bet you thought I'd never say that I was wrong
 A/F# 
You never know where you're gonna find it

Somewhere in the back of your eyelids
 E 
The liquid truth can kill you
 D A E 
It's a courage made a thrill for so long


Verse II

 A 
Just another guy more than half way home
                                    A/G# 
Never getting sick of this drive alone
 A/F# 
Taking back the money that I borrowed

Swearing it'll all end tomorrow
 E 
Looks like I got what I wanted
 D A E 
Just maybe not the way that I thought it should go


Chorus

So so
                A 
So I'm coming home
                                                           A/G# A/F# 
Keep your eyes on the road for me I'm coming home
                                                                  E 
When the lights blind everything and then you'll know
             D A E 
It won't be long til I'm coming home



Verse III

 A 
Man there's so many things I should have said
                                                                                 A/G# 
So many others really could've wound up dead
 A/F# 
I never got to make up with Lisa

I never got to get outta Georgia
 E 
I never got to die in Vegas
 D A E 
Sleeping at the wheel of a car that won't roll



Chorus

So so
                  A 
So I'm coming home
                                                           A/G# A/F# 
Keep your eyes on the road for me I'm coming home
                                                   E 
When the lights blind everything and then you'll know
             D A E 
It won't be long til I'm coming home



Interlude

 A A/G# A/F# E D A E 



Verse IV

 A 
Tell Momma and Dad that I know they cared
                                            A/G# 
My wife and son there's a box upstairs
 A/F# 
With his three initials on it

If he should ever come upon it
 E 
There's a note saying everything my mouth can't say
 D A E 
To take a look in the driveway    for the lights   Cause one day ...



Chorus

                 A 
Yeah I'm coming home
                                                        A/G# A/F# 
Keep your eyes on the road for me I'm coming home
                                                  E 
When the lights blind everything and then you'll know
                      D A E 
It won't be long til I'm coming home



Outro

 A A/G# A/F# E D A E * (riff)         A 



* (riff)

a -------------0--|
e -----0-h-2------|




 Olivia McGleish

Belong chords – Kevin Walker

 Hej! 
Detta är min version av Belong, hoppas den stämmer någorlunda. 
Själv spelar jag bara piano, så har ingen koll på capon osv, 
men jag gillar att sjunga den i A i alla fall. 
Har dock ingen aning om hur man ska spela sticket, 
men det kan kanske någon annan klura ut? 
Hoppas ni gillar den i alla fall, 
hjälp mig gärna att rätta till misstag! :)

 A 
Where does it end
                          F#m 
When we keep walking in circles my friend
 A 
Put in a frame,
                        F#m 
I'm sick and tired of taming the flames
        D 
Let me burn and live without these chains
 A F#m 
Watch me running, watch me break away
 D 
Oh what a story
 A F#m 
In the wind I'm like a paper plane

 D F#m D A E   
But no sticks and stones could ever break these bones
 F#m D A E 
Finally I made my way home
                 F#m D A E 
This is where I belong
                 F#m D A E 
This is where I belong

 A 
So what do you say,
                       F#m 
You wanna break these circles with me?
 A 
Take on the pain
                            F#m 
And turns those tears into summer rain
         D 
Let our burden slowly drain away
 A F#m 
Give me colours, riddles, mysteries
 D 
Oh what a story
 A F#m 
In the wind we're just like paper planes

 D F#m D A E   
But no sticks and stones could ever break these bones
 F#m D A E 
Finally I made my way home
                 F#m D A E 
This is where I belong
                 F#m D A E 
This is where I belong

https://www.facebook.com/kevinwalkerofficial

Synthesizers chords – Butch Walker V3

 Both the other guys have it wrong. Here's the correct version

Intro:  C ,  Em ,  F ,  G C Em 
 Everybody's writing songs with synthesizers
      C Em 
 But I don't have a synthesizer
          F Em 
 I can still get down like
 F G F    
 Duran Duran in 1985
  C Em 
 I didn't name my band after an animal
  C Em 
 I don't have any feathers or neon clothes
                 F Em 
 But I can stay out all night
      F G 
 Like Sacajawea in a paint fight
 
 C Em ,  C Em C Em 
 For once, once in your life
                                          F 
 Won't you do what feels right
                                          G F 
 Instead of waiting for the next big compromise
  C Em 
 Stop running your mouth
                         F 
 Get out of the house

 Get yourself downtown
       G F C 
 And shake it all out tonight

 C Em ,  C Em ,

    C Em 
 I don't have any friends at that pitch for NME
     C Em 
 No sexy heroin addiction plaguing me
            F Em 
 But I can still get down like
 F G 
 Frank Poncherello on a motor bike... that's right
 
 

      C Em 
 For once, once in your life
                          F 
 Won't you do what feels right
                                                  G F 
 Instead of waiting for the next big compromise
  C Em 
 Stop running your mouth
                        F 
 Get out of the house

 Get yourself downtown
       G F Am 
 And shake it all out tonight

Bridge:  Am ,  Em ,  F ,  C Am ,  Em ,  F ,  G ,  C C Em ,  C Em ,
 
 
      C Em 
 For once, once in your life
                                         F 
 Won't you do what feels right
                                         G F C 
 Instead of waiting for the next big thing to strike
                                 Em 
 Stop running your mouth
                         F 
 Get out of the house

 Get yourself downtown
       G F C 
 And shake it all out tonight

  C                            
 Hit me once and it wasn't enough,
  Em 
 Baby I want the stronger stuff. 
  F 
 Hit me once and it wasn't enough,
  G F 
 Baby I want the stronger stuff. 
  C 
 Hit me once and it wasn't enough,
  Em 
 Baby I want the stronger stuff. 
  F 
 Hit me once and it wasn't enough,
  G F C 
 Baby I want the stronger stuff.

He Knows My Name solo Tabs by Tommy Walker

 -------------------------------------------------------------------------------
                             He Knows My Name - Tommy Walker
-------------------------------------------------------------------------------

Solo in the key of C according to http://www.youtube.com/watch?v=NXKWsfbizB4

e|----------------------------------------------10-12-12---10--13-12-10------|
B|-------------------------------------10-12-13--------------13---------13~--|
G|-5-7-9h10-9--5---/9-9--7p5-7~----12----------------------------------------|
D|---------------7~--------------12------------------------------------------|
A|---------------------------------------------------------------------------|
E|---------------------------------------------------------------------------|

e|--------------------------------------------12-13-12p10--------------------|
B|-13--------------------------------------13-------------13~----------------|
G|-14-12h14--------------------------(9)-------------------------------------|
D|----------10-------10-14-14-12-12-10---------------------------------------|
A|--------------10h12---15-15-10-10-10---------------------------------------|
E|---------------------------------------------------------------------------|

************************************

| /   slide up
| \   slide down
| h   hammer-on
| p   pull-off
| ~   vibrato
| +   harmonic
| x   Mute note
| b   Bend
| pb  Pre-bend
| br  Bend release
| pbr Pre-bend release
| brb Bend release bend

************************************

Your Voice chords – Kim Walker Smith And Skyler Smith V2

 Your Voice Skyler & Kim Walker Smith  

Capo 2 


Intro( G , C , G , C , G , C )

           C G 
With Your voice speak to me       
         C G           
The words I long to hear 
           C G                                
With Your hand guide my way    
            C G                                    
Through my night till darkness fades  
        C  
I just want You 
        G 
I just want You         
        C 
I just want You 

Instrumental: ( C , G , C , G )

           C G 
With Your hand guide my way           
            C G  
Through my night till darkness fades 
        C 
I just want You 
        G 
I just want You 
        C 
I just want You  
                     Em 
There is no greater need       
                  C    
You made my life complete  
     G D  
You set me free 
                     Em 
Your voice alive in me    
          C   
Sound of victory  
     G D              
You speak to me  

                     Em 
There is no greater need       
                  C    
You made my life complete  
     G D  
You set me free 
                     Em 
Your voice alive in me    
          C   
Sound of victory  
     G D              
You speak to me  

      Em     
Your voice is the light

Shining through the doorway 
       G 
Of my heart comes alive
 D 
When your speaking to me  

        Em     
Your voice is the light

Shining through the doorway 
       G 
Of my heart comes alive
 D 
When your speaking to me 
       Em     
Your voice is the light

Shining through the doorway 
       G 
Of my heart comes alive
 D 
When your speaking to me  
 
  Em    
You're my life
 D/F G 
You're my life
  
   Em    
You're my life
 D/F G 
You're my life

        C 
I just want You 
        G 
I just want You 
        C 
I just want You  
   (End on  G )

Kevin Walker – Belong chords

 Det här är första gången som jag tar ut ackord själv, så det kanske är lite fel här och 
där eller till och med hela låten kanske är fel.
Capo 6, eller det som passar din röst.

 G Em C G 
Where does it end
                        Em 
When we keep walking in circles my friend
 G 
Put in a frame,
                       Em 
I'm sick and tired of taming the flames
        C 
Let me burn and live without these chains
 G 
Watch me running
                   Em 
Watch me break away
 C 
Oh what a story
 G Em 
In the wind I'm like a paper plane

 C G Em C D 
But no sticks and stones could ever break these bones
 G Em C D 
Finally I made my way home

                G Em C D 
This is where I belong
                G Em C D 
This is where I belong

 G 
So what do you say,
                       Em 
You wanna break these circles with me?
 G 
Take on the pain
                           Em 
And turns those tears into summer rain
         C 
Let our burden slowly drain away
 G Em 
Give me colours, riddles, mysteries
 C 
Oh what a story
 G 
In the wind we're,
                Em 
Just like paper planes
 C G Em C D 
But no sticks and stones could ever break these bones
 G Em C D 
Finally I made my way home
                G Em C D 
This is where I belong
                G Em C D 
This is where I belong
 F 
Cause you made me
 C 
Yeah, you saved me
 Am D 
And you take me higher
           Am *    F *
I found my love
            Am *  F *       D 
I found my love
                G Em C 
This is where I belong
 D 
I can feel it
                G Em C 
This is where I belong
 D 
Yeah
                G Em C D 
This is where I belong
 D 
Yeah
                G Em C D 
This is where I belong

Walker Texas Ranger chords – Michel Lingnieur Informaticien

 Michel L'Ingénieur Informaticien - Walker Texas Ranger


Intro (spoken)

c'est une règle d'or dans la vie! 
reflechir et faire les bons choix.
alors ne vous précipitez pas!
Ne tomber pas dans la facilité! 
Prenez le temp de réfléchir
C'est une regle d'or dans la vie!!


Intro

 F# 


Verse 1


 F# C# 
   Il arrive dans une ville, et il pète la gueule 
                                          Ebm  
a tous les gros méchant et tous les délinquants, 
                                            Bbm 
qui font chier les gentils et les petits enfannnnnnnt !

 F# C# 
    il s'apel walker, walker texas rangers , 
                                      Ebm  
c'est un américain , il est super gentil, 
                                         Bbm 
il a tout l'temp raison , c'est un américain quoi!!!


Chorus

 F# C# 
Moi j'voudrais, etre un homme , comme walker texas rangers, 
 Ebm Bbm 
   pour taper les méchants avec mes pieds ééé!

1 , 2 , 3

 F# C# 
Moi j'voudrais, ètre un homme, comme texas rangerrrrs 
 Ebm Bbm 
   pour taper les méchants avec mes pieds


Verse 2

walker c'est mon idole, private c'est son copain, des
fois ils font des blagues alors pour rigoler ... 
et surtout a la fin innnn

j'aime bien quand ils se battent , et qu'ils s'filent des coups de lattes,
 aveque leur gros pieds, j'te jure j'ai essayé, 
j'te jure j'ai essayé, j'te jure j'ai essayé, ( parler) - c vraimet dur hein!!!-


Chorus 2

Moi j'voudrais ètre un homme comme pascal obispo oh oh,
comme walk texas rangers-e-errrs

Moi j'voudrais , ètre un homme , comme walker texas rangers,
pour taper les méchants avec mes pieds eh                   

Moi j'voudrais , ètre un homme , comme walker texas rangers,
pour taper les méchants avec mes pieds eh                   


Verse 3

élvé par les indiens, il a de vrai pouvoirs , 
il peut meme taper les gens avec ses pieds , 
il aurait meme pu fairee de la gymnasti iiiqueeeee

sa copine elle est blonde , et mème intelligente , 
des fois elle réflechi, c'est pour ca qu'il la choisi, 
walker texas rangerrrss.


Chorus 3

Moi j'voudrais , ètre un homme , comme walker texas rangers,
pour taper les méchants avec mes pieds eh                   

Moi j'voudrais , ètre un homme , comme texas rangers,
pour taper les méchants avec mes pieds eh                   


na na na, na na naaa
na na na na na na na naaaaa
na na na na na, na na na naaaaaa

Moi j'voudrais , ètre un homme , comme walker texas rangers,
être un américain, avoir une copine blonde

Moi j'voudrais , ètre un homme , comme walker texas rangers,
pour taper les méchants avec mes pieds eh                   



Tab by hiphop :D

He Knows My Name chords – Tommy Walker V5

  beachynk


He Knows My Name
Tommy Walker

VERSE 1
 D Em D/F# G 
I have a maker
 D G Asus/A 
He formed my heart
 D Em D/F# G 
Before even time began
     D A D 
My life was in his hands


CHORUS
 G D/F# A C# D 
He knows my name
 G D/F# A D 
He knows my every thought
 G D A Bm  
He sees each tear that falls
        G A D         (Into bridge)  D Em D /F#  G Asus A 
And he hears me when I call


VERSE 2
 D Em D/F# G 
I have a father
 D G Asus/A 
He calls me his own
 D Em D/F# G 
He will never leave me
     D A D 
No matter where I go

CHORUS



BRIDGE
 G 
He knows me
 D/F# 
He loves me
 Em 
He wants me
 Asus/A 
He hears me when I call

 G 
He formed me
 D/F# 
He sees me
 Em 
Never leaves me
 Asus/A 
He hears me when I call

CHORUS

BRIDGE

CHORUS

How He Loves Us chords – Kim Walker V2

 Hi guys, this is my second song that i am making:)
This chords is for those people who prefer to sing lower.
Please do rate




(Verse 1)
(Part 1)
 ( B )              ( B )
 He is jealous for me.
 ( G# )                    ( G# )
 Love's like a hurricane, I am a tree.
 ( F# )                ( F# )                 ( E )      ( E/F# )    
 Bending beneath the wave of His wind and Mercy.

(Part 2)
     ( B )                 
 When all of a sudden,
 ( B ) 
 I am unaware of this
 ( G# )                    ( G# )  
 afflictions eclipsed by Glory.
       ( F# )             ( F# ) 
 And I realize just how beautiful You are
         ( E )                       ( E/F# )  
 And how great Your affections are for me.

(Pre-Chorus)
 ( B ) 
 And Oh, 
 ( B )             ( G# )   
 How He loves us Oh.
 ( G# )      ( F# )
 Oh How He loves us.
 ( F# )            ( E )
 How He loves us Oh.


 (Instruments)


(Chorus)X2
         ( B )
 Yea, He loves us.
 ( B )       ( G# )
 Oh how He loves us.
 ( G# )      ( F# )
 Oh How he loves us.
 ( F# )      ( E )       ( E/F# )
 Oh how He loves. 

(Verse 2)
(Part 1)
 ( B )                    ( B )
 We are his portion and He is our prize.
 ( G# )                       ( G# )  
 Drawn to redemption by the Grace in His eyes. 
    ( F# )        ( F# )            ( E )        ( E/F# )
 If Grace is an ocean we're all sinking.

(Part 2)
     ( B )                       ( B )
 So, Heaven meets Earth like a sloppy wet kiss 
        ( G# )                  ( G# )
 and my heart turns violently inside of my chest.
   ( F# )               ( F# )                         ( E )          ( E/F# )
 I don't have time to maintain this regrets when I think about, The Way.

(Chorus)X as much as you like
         ( B )
 Yea, He loves us.
 ( B )       ( G# )
 Oh how He loves us.
 ( G# )      ( F# )
 Oh How he loves us.
 ( F# )      ( E )       ( E/F# )
 Oh how He loves. 

I'm sorry that i couldn't finish the whole song because of The Words Of Kim Walker.
                          

                       (:Hope You Enjoyed It:)

Break Through chords – Tommy Walker

 Intro: 
 C G/C C G/C F G/F F G/F  
 

Verse: 
              C G/C  
Break through, 
              C G/C  
break through all my doubts 
               F G/F  
Break through, 
              F G/F  
break through all my fears 
               Dm7 C/D  
Break through 
      Am/G G Csus C G Gsus  
That I may worship You 
              C G/C  
Break through, 
              C G/C  
break through all my pain 
               F G/F  
Break through, 
        F G/F  
all my guilt and my shame 
               Dm7  
Break through, 
        Gsus G Csus C G/C C  
like only  You can do 
              G F C  
You are brighter than my darkest night, 
      G F C  
Stronger than my toughest fight 
               G F C  
Just one touch from You, my King,  my Friend 
          C/D Dm C/D G7sus G  
And I'll nev - er be the same again 

He Knows My Name chords – Tommy Walker V4

 INTRO
 F Bb/F 

VERSE
 F Gm7 F/A Bb F/C Bb/D F/C C7sus C7 
I have a maker,      He formed     my heart
 F Gm7 F/A Bb F/C C7sus F Cm7 F 
Before even time began my life was in   His hands

CHORUS
 Bb F C7sus Eb/F F7/A 
He knows my name
 Bb F C F 
He knows my every thought
 Bb F C Dm7 Bb C C7sus F C/F Bb /F
He sees each tear that falls and hears me when I call

VERSE
 F Gm7 F/A Bb F/C Bb/D F/C C7sus C7 
I have a Father,      He calls    me His own
 F Gm7 F/A Bb F/C C7sus F Cm7 F 
He'll never   leave me  no matter where   I go

CHORUS
 Bb F C Fsus F F7/A 
He knows your name
 Bb F Csus C Cm7 F7 
He knows your ev-    'ry thought
 Bb F C      C#dim7      Dm7 
He sees all those tears that      fall
            Bb Csus C Fsus F 
And He'll hear you when   you call

Sleepwalker Tab by Flyleaf

Artist: Flyleaf
Song: Sleepwalker
Tuning: Drop D (Low to high D-A-D-G-B-E)

Legend:
/ = slide up
\ = slide down
b = bend string
r = release bend
x = mute string
P.M. = palm mute

I can't believe nobody has tabbed this yet, as it's not too hard to figure out. I love 
song; it's so powerful and emotional.

Intro/Verse 1 (0:00-0:33)
Guitar 1 (clean w/echo):
E|-------------------------------|
B|-------------------------------|
G|-----5------4br------9-----9br-|
D|-------------------------------|	x6
A|---3------3-------7------7-----|
D|-3-------------/7--------------|
"My spirit is willing..."
------------------------------------------------------

Prechorus (0:33-0:56)
Guitar 1 (clean):
E|---------------------------------------|
B|---------------------------------------|
G|---------------------------------------|
D|-3-3-3-33-/7-7-7777-5-5-5-55--5-5-5555-|	x4
A|-3-3-3-33-/7-7-7777-5-5-5-55--5-5-5555-|
D|-3-3-3-33-/7-7-7777-5-5-5-55--5-5-5555-|
"Walking around in my sleep..."
------------------------------------------------------

Verse 2 (0:56-1:29)
Guitar 1 (clean w/echo):
E|-------------------------------|
B|-------------------------------|
G|-----5------4br-----9------9br-|
D|-------------------------------|	x6
A|---3------3-------7------7-----|
D|-3-------------/7--------------|

Guitar 2 (distorted w/tremolo, gradual volume swell):
E|--------------------12---13----|
B|-12---13----10--13---------12\-|
G|-------------------------------|
D|-------------------------------|	x6
A|-------------------------------|
D|-------------------------------|
"how many times will I..."
------------------------------------------------------

Chorus 1 (1:29-2:13)
Guitars 1&2 (distorted):
E|------------------------------------|
B|------------------------------------|
G|-----5-------9-------7----------777-|
D|-3-3-5---7-7-9---5-5-7---5---x5-777-|	x2
A|-3-3-3---7-7-7---5-5-5---5---x5-555-|
D|-3-3-----7-7-----5-5-----5---x5-----|
"How can I love you back..."

Guitar 1:
E|----------------------------------|
B|----------------------------------|
G|----------------------------------|
D|----------------------------------|	x2
A|----------------------------------|
D|-55555555555555555555555555555555-|
P.M. - - - - - - - - - - - - - - - .

Guitar 2 (distorted w/tremolo):
At the end of Guitar 1's second time through riff:
E|-12-----------------|
B|----12-13---------8-|
G|--------------------|
D|--------------------|
A|--------------------|
D|--------------------|
"His piercing eyes..."

Guitars 1&2 (distorted):
E|------------------------------------|
B|------------------------------------|
G|-----5-------9-------7----------777-|
D|-3-3-5---7-7-9---5-5-7---5---x5-777-|	x4
A|-3-3-3---7-7-7---5-5-5---5---x5-555-|
D|-3-3-----7-7-----5-5-----5---x5-----|
"Please simply stay awake..."
------------------------------------------------------

Interlude (2:13-2:47)
Guitar 1:
E|---------------------------------------|
B|---------------------------------------|
G|-------------121212-------------121212-|
D|-55-44-55-44--x-x-x-55-44-55-44--x-x-x-|	x6
A|-33-22-33-22-101010-33-22-33-22-101010-|
D|---------------------------------------|

Guitar 2 comes in after 1st time through:
E|-----------------------|
B|-----------------------|
G|-455-455-455-455-12-12-|
D|------------------x--x-|	x4
A|-----------------10-10-|
D|-----------------------|
"Don't you see me..."

E|---------------------------------------------|
B|-455-455-455-455-12-11-455-455-455-455-11-12-|
G|------------------x--x------------------x--x-|
D|-----------------10--9------------------9-10-|
A|---------------------------------------------|
D|---------------------------------------------|

E|-----------------------|
B|-----------------------|
G|-455-455-455-455-12-12-|
D|------------------x--x-|	x2
A|-----------------10-10-|
D|-----------------------|
"I swear I..."

E|----------------------------|
B|----------------------------|
G|----------------------------|
D|----------------------------|
A|----------------------------|
D|------------x\\Pickslide\\\-|

*This is all while Guitar 1 is playing the one riff.*
------------------------------------------------------

Chorus 2(2:47-3:09)
Guitars 1&2:
E|---------------------------------------|
B|---------------------------------------|
G|-----------------------7----------7777-|
D|-3-3-3-33-7-7-7-77-5-5-7---5---x5-7777-|	x2
A|-3-3-3-33-7-7-7-77-5-5-5---5---x5-5555-|
D|-3-3-3-33-7-7-7-77-5-5-----5---x5------|
"How can I love you back..."

E|---------------------------------------|
B|---------------------------------------|
G|-----------------------7----------7777-|
D|-3-3-3-33-7-7-7-77-5-5-7---5---x5-7777-|	x2
A|-3-3-3-33-7-7-7-77-5-5-5---5---x5-5555-|
D|-3-3-3-33-7-7-7-77-5-5-----5---x5------|
"His piercing eyes..."
------------------------------------------------------

Outro (3:09-3:25)
Guitar 1:
E|----------------------------------|
B|----------------------------------|
G|----------------------------------|
D|----------------------------------|	x2
A|----------------------------------|
D|-55555555555555555555555555555555-|
P.M. - - - - - - - - - - - - - - - .

Guitar 2 (distorted w/tremolo):
At the end of Guitar 1's second time through riff:
E|-12-----------------|
B|----12-13---------8-|
G|--------------------|
D|--------------------|
A|--------------------|
D|--------------------|
"His piercing eyes..."

Guitar 1 finishes:
E|--------------------|
B|--------------------|
G|--------------------|
D|-3------------------|
A|-3------------------|
D|-3------------------|

Guitar 2 finishes:
E|-----------------------------------------------------|
B|-12-13-----------------------------------------------|
G|-----------------------------------------------------|
D|-----------------------------------------------------|
A|-----------------------------------------------------|
D|-----------------------------------------------------|
-------------------------------------------------------|

Lyrics:

My spirit is willing, but my flesh is weak.
My eyelids grow heavy, and I might just fall asleep,

Walking around in my sleep,
Running into walls I cannot see,
Falling and scraping up my face,
Ignoring the softest spoken grace.

How many times will I go and take the bait
Only for this hook to rip right through my face?

How can I love you back?
What can I do to show you, you?
His piercing eyes meet mine...
Please simply stay awake,
Talk to me and I'll hear you, you!
Don't fall asleep this time,
gotta stay awake, gotta stay awake.

Don't you see me reaching for you?
I swear I really do love you,
Love you.

How can I love you back?
What can I do to show you, you?
His piercing eyes meet mine...
His piercing eyes meet mine.