Tag: want

All I Want chords by Kodaline

[Verse 1]

C             F       C
All I want is nothing more
                     G/B    Am
To hear you knocking at my door
          F                          C
Cause' if I could see your face once more
        F                   C
I could die a happy man I'm sure

C                  F        C
When you said your last goodbye
                G/B   Am
I died a little bit inside
      F                       C
And I lay in tears in bed all night
   F                    C        G
Alone without you by my side


[Chorus]

           Am
But if you loved me
          F
Why'd' ya leave me
        C
Take my body
        G
Take my body

      Am
All I want is
          F
And all I need is
            C
To find somebody
              G
I'll find somebody


[Interlude]

     C      F      C
Like youuu, ohhhh, oh
C       G       Am
ohhhhh, ohhhhh, oh
F       C
youuuuuu
     F       C
Like youuuuuu


[Verse 2]

     C                 F       C
So you brought out the best of me,
                  G/B    Am
A part of me I've never seen.
     F                          C
You took my soul and wiped it clean.
     F                          C       G
Our love was made for movie screens.


[Chorus]

           Am
But if you loved me
          F
Why'd' ya leave me
        C
Take my body
        G
Take my body

      Am
All I want is
          F
And all I need is
            C
To find somebody
              G
I'll find somebody


[Instrumental]

Dm  G
Dm  G  G


[Bridge]

              Am
Oooohhh Woooo ooohhh ooohhh
               F
Oooohhh Woooo ooohhh ooohhh
               C/G
Oooohhh Woooo ooohhh ooohhh ooohhh ooohhh
              Am
Oooohhh Woooo ooohhh ooohhh
               F
Oooohhh Woooo ooohhh ooohhh
               C
Oooohhh Woooo ooohhh ooohhh ooohhh ooohhh
G
Oooohhh


[Instrumental]

Am  F  C  G
Am  F  C  G


[Chorus]

           Am
But if you loved me
          F
Why'd' ya leave me
        C
Take my body
        G
Take my body

      Am
All I want is
          F
And all I need is
            C
To find somebody
              G
I'll find somebody
     C        F         C
Like youuuuuuuohhhhhhh, ohhhhhhhh

Want You Back Chords by HAIM

[Verse]
                          C   G   F
Some things are long forgotten
                          C   G   F
Some things were never said
                       C   G   F
We were on one endless road
                      D5
But I had a wandering heart


[This riff is over the next part of the verse]
|12-------10-------------|------------------------|
|---13-------12----13----|------------------------|
|------12-------12-------|------------------------| x3
|------------------------|------------------------|
|------------------------|------------------------|
|------------------------|------------------------|

                           C
I said we were opposite lovers
        G        F
(Said it from the beginning)
                                 C
You kept trying to prove me wrong
        G          F
(Said you’d always see it through)
                          C   G   F
And I know that I ran you down
                          D5
So you ran away with your heart


[Chorus]
[This riff is throughout the chorus]
|------------------------|------------------------|
|------------------------|------------------------|
|------------------------|------------------------| x8
|10-12-10-12-10-9/10-10--|9/10-10--(9/10-10)------|
|------------------------|------------------------|
|------------------------|------------------------|

                              C   F   C
But just know that I want you back
          F      G      Am     C   F
Just know that I want you back

Just know that I want you
C                 F                  Am
I’ll take the fall and the fault in us
                       C                          F
I’ll give you all the love I never gave before I left you
                          C   F   Am
Just know that I want you back
                          F
Just know that I want you back

Just know that I want you
C                 F                  Am
I’ll take the fall and the fault in us
                       C                          F
I’ll give you all the love I never gave before I left you


[Verse]
                         C   G   F
I know it’s hard to hear it
                         C   G   F
And it may never be enough
                            D5
But don’t take it out on me now
                           F
‘Cause I blame it all on myself


[This riff is over the next part of the verse]
|12-------10-------------|------------------------|
|---13-------12----13----|------------------------|
|------12-------12-------|------------------------| x3
|------------------------|------------------------|
|------------------------|------------------------|
|------------------------|------------------------|

                           C
And I had a fear of forgiveness
        G        F
(Said it from the beginning)
                                C
I was too proud to say I was wrong
        G          F
(Said you’d always see me through)
                 D5
All that time is gone, no more fearing control
                  F
I’m ready for the both of us now


[Chorus]
[This riff is throughout the chorus]
|------------------------|------------------------|
|------------------------|------------------------|
|------------------------|------------------------| x8
|10-12-10-12-10-9/10-10--|9/10-10--(9/10-10)------|
|------------------------|------------------------|
|------------------------|------------------------|

                             C   F   C
So just know that I want you back
          F      G      Am     C   F
Just know that I want you back

Just know that I want you
C                 F                  Am
I’ll take the fall and the fault in us
                       C                          F
I’ll give you all the love I never gave before I left you

                          F
Just know that I want you back
                G
(Just know that I want you)
                          Em
Just know that I want you back
                F
(Just know that I want you)

Just know that I want you
F                                    G
I’ll take the fall and the fault in us
                                                  Em
I’ll give you all the love I never gave before I left you
                 F
(Just know that I want you back, baby)


[Bridge]
                          F    G
Just know that I want you back
                          Em   F
Just know that I want you back

Just know that I want you
F                                    G
I’ll take the fall and the fault in us
                                                  Em      F
I’ll give you all the love I never gave before I left you
                          F    G
Just know that I want you back
                          Am   C
Just know that I want you back

Just know that I want you
F                                    G
I’ll take the fall and the fault in us
                                                  Am      C
I’ll give you all the love I never gave before I left you


[Chorus]
[This riff is throughout the chorus and outro]
|------------------------|------------------------|
|------------------------|------------------------|
|------------------------|------------------------| x12
|10-12-10-12-10-9/10-10--|9/10-10---9/10-10-------|
|------------------------|------------------------|
|------------------------|------------------------|

                          F    G
Just know that I want you back
                          Em   F
Just know that I want you back

Just know that I want you
F                                    G
I’ll take the fall and the fault in us
                                                  Em       F
I’ll give you all the love I never gave before I left you, baby
                          F
Just know that I want you back
                 G
(Just know that I want you)
                          Em
Just know that I want you back
                 F
(Just know that I want you)

Just know that I want you
F                                    G
I’ll take the fall and the fault in us
                                                  Em
I’ll give you all the love I never gave before I left you
                 F
(Just know that I want you back, baby)


[Outro]
F                G
(Just know that I want you)
Em               F
(Just know that I want you back, baby)
F                                    G
I’ll take the fall and the fault in us
                                                  Em       F      C
I’ll give you all the love I never gave before I left you

I Dont Want To Know Your Name chords – Glen Campbell

 I Don't Want To Know Your Name
Glen Campbell

Intro  A (arpeggio)

Verse 1

 A 
I see you just like the movies
            A7 D 
I see your face across a crowded room
 F#m             
And I have learned through
 A F#m Bm 
Simple trial and error
                  E E7  
Not to speak too soon

Verse 2

 A 
  Your eyes just like a magnet
         A7 D F#m 
They're drawing my eyes around

And I can't hear 
     A F#m Bm 
one Word of conversation
                E D 
I can't hear a sound

Pre-chorus

                        A(open) D/C#  B
I see you looking at me

You see me looking at you  But

Chorus 1
(for walk up and down between E and B Chords)

E__________________|
B__________________| used thru out
G__________________|
D__________________|
A____0__2___0__2___|
E__0______0________|


 E B B7 E            
I don't wanna know your name
 B E B B7 E       
And I don't wanna play this game
       E 
Where two lovers meet
     B B7 E 
And one lover parts in pain

Verse 3

 A 
I feel this urge to meet you
   A7 D    
I feel this urge to run
 F#m A F#m 
Repairing hearts so easily shattered
 Bm E D 
Is never any fun

Pre-chorus

                        A(open) D/C#  B
I see you looking at me

You see me looking at you  But


Chorus 2

 E B B7 E 
I don't wanna know your name
     E B B7 E  
And I don't wanna play this game
       E 
Where two lovers meet
     B B7 E 
And one lover parts in pain

Riff   E B A G D G D A G D A E B  

Outro

 E B B7 E 
I don't wanna know your name
 E B B7 E 
I don't wanna play this game
 E B B7 E 
I don't wanna know your name
 E B B7 E 
I don't wanna play this game

flyinglibra51
God Bless Glen Travis Campbell

I Only Want You For Christmas chords – Alan Jackson

 I Only Want You For Christmas 
Alan Jackson
Key: C

 F                          
The snow is falling
 C 
It's Christmas Eve
 Dm                   
Presents are wrapped 
 C 
Under the tree
 Dm G 
Is there one for me?

CHORUS:
             C        
I only want you for Christmas, baby
   C G 
I don't need nothing else
             C F           
I only want you for Christmas, baby
       C G C 
Tie a ribbon around yourself
 F C G C 
Oh, tie a ribbon around yourself


 G C 
I ain't gonna write no letter  Send north to the pole
 D7 G F G 
Cause what I'm wanting this year Saint Nick don't need to know

REPEAT CHORUS:

LEAD BREAK:
 C C C G C F C G C 

BRIDGE:
 G C 
So put on your Christmas stockings I'll find that mistletoe
           D7 
Let's get into the the holiday spirits
     G F G                  
And honey ho ho ho ho 

KEY CHANGE TO D:

 A 
ho ho ho ho

CHORUS:
             D         
I only want you for Christmas, baby
   D A 
I don't need nothing else
             D G 
I only want you for Christmas, baby
       D A D 
Tie a ribbon around yourself
             D         
I only want you for Christmas, baby
   D A 
I don't need nothing else
             D G 
I only want you for Christmas, baby
       D A D 
Tie a ribbon around yourself

 G D A D 
Oh, tie a ribbon around yourself

OUTRO:
Same as chorus - 4X then fade out on 5

Paul E James – Jesus Youre The One That I Want chords

 This is based on a song from Grease changed for use in church.

INTRO: 
 Em 

VERSE 1
       Em C G 
I got chills, they're multiplying, and I'm losing control
            B7 C Em 
'Cause the power you're supplying, it's electrifying

                  G B7 C Em 
I'd better shape up, 'cause I need a friend, and my heart is set on you
                  G B7 C Em 
I'd better shape up, better understand, to my lord I must be true



CHORUS
            G Em 
You're the one that I want, Lord Jesus
     G Em 
The one that I want, Lord Jesus
     G Em 
The one that I want, Lord Jesus
           C Em 
Can't you see, the Jonah in me, really your all I need


VERSE 2
 Em C G 
You are filled with affection, I am too stubborn to obey
     B7 C Em 
I will Meditate in your direction,  live my life your way
                  G B7 C Em 
I'd better shape up, 'cause I need a friend, and my heart is set on you
                  G B7 C Em 
I'd better shape up, better understand, to my lord I must be true


 C 
But I'm sure down deep inside
 C 
But I'm sure down deep inside

CHORUS
            G Em 
You're the one that I want, Lord Jesus
     G Em 
The one that I want, Lord Jesus
     G Em 
The one that I want, Lord Jesus
           C Em 
Can't you see, the Jonah in me, really your all I need

OUTRO:
 Em G Em 
You're the one that I want, Lord Jesus

All I Want Tabs – Stonefox

 "All I Want" by Stonefox
Tab by Hence - http://www.henceofficial.com

I use capo 5-7 or so, but just put the capo wherever to suite your voice.

VERSE:
e|-------------------|
B|---3---2---7---0---|
G|-------------------|
D|-------------------|
A|---2---0---5-------|
E|---------------3---|

CHORUS:
e|------------------------------------|
B|---0---2---3-----------7---0-2-3----|
G|------------------------------------|
D|------------------------------------|
A|-------0---2-----------5-----0-2----|
E|---3-----------------------3--------|

BRIDGE:
e|-------------------------------------------|
B|---3---3--3--2---2--2--7---7--7--0---0--0--|
G|-------------------------------------------|
D|-------------------------------------------|
A|---2--2--2---0--0--0---5--5--5---3--3--3---|
E|-------------------------------------------|

VERSE #1:
Sometimes when the sun sets I feel alone
Sometimes I feel at home
This time, tonight, I need someone
And it's not the sand in my hair
It's the thoughts running through my head
All those things you never said

CHORUS:
I'm on the last train home
And you call my phone
To say I love you is too strong
But YOU ARE ALL I WANT

VERSE #2:
When the sight of the ocean isn't enough
And the pressure on your lungs is just too much
Think of what you've got
And it's not the salt on your skin
It's me, I'm tired of running
You jump in but I won't swim
And I can't save you

CHORUS:
I'm on the last train home
And you call my phone
To say I love you is too strong
But YOU ARE ALL I WANT
Yeah, you are all I want

BRIDGE:
And if you see me after
Is the risk I'm taking
A second class lover
In the making
If you see me after
Is the risk I'm taking
A second class lover
In love, in love

CHORUS:
I'm on the last train home
And you call my phone
To say I love you is too strong
But YOU ARE ALL I WANT
Yeah, you are all I 
Yeah, you are all I

I Want Candy chords – The Strangeloves

 I Want Candy:Strangeloves.
#7 on CANADA RPM and #11 on BB Hot 100
on BANG Records in 1965.

INTRO:  (DRUMS)  B A B 

#1.
 B B A B 
I know a girl who's soft and sweet.
 B B A B 
She's so fine, she can't be beat.
 B B A B 
Got everything that I desire.
 B B A B 
Sets the summer sun on fire.

CHORUS:
 B B A B B B A B 
I want Candy...........I want Candy.


INTERLUDE: DRUMS..B A B (Hey!)(x4)

#2.
 B B A B 
Go to see her with her hair hung down.
 B B A B 
Ain't no finer girl in town.
 B B A B 
Candy's just what the doctor ordered.
 B B A B 
She's so sweet, she makes my mouth water.

CHORUS:
 B B A B B B A B 
I want Candy..........I want Candy.
 B B A B B B A B 
I want Candy..........I want Candy.
 B B A B B B A B 
I want Candy..........I want Candy.


INTERLUDE: DRUMS..B A B (x5) 

                   B A B  (Hey!)(x4)
#3.
 B B A B 
Candy on the beach, there's nothing better.
 B B A B 
But I like Candy when it's wrapped in a sweater.
 B B A B 
Some day soon I'll make her mine.
 B B A B 
Then I'll have Candy all the time.

CHORUS:
 B B A B B B A B 
I want Candy..........I want Candy.


OUTRO: DRUMS: B A B (x2)



A sixties smash from Kraziekhat.

I Want You chords – Beau Brummels

 I Want You:Beau Brummels.
B-Side of You Tell Me Why.
#38 on BB Hot 100 on Autumn Records
in 1965.

INTRO:  Em B E D C D C  

#1.
 D C 
Don't leave me lonely, I am not one to stand 
 D       
alone..yeah.
 D C 
Don't go without me, I would be helpless on my 
 D     
own..yeah.

CHORUS:
 C F C F D 
Don't you go, they'll make me cry, don't you go,
       Am7 C D 
girl, I would die...


INTERLUDE:  D C D C 

#2.
 D C 
Don't let me down, girl, or up in the air just-a 
         D    
hanging blue..yeah.
 D C 
You are my strength, girl, my one chance of living 
       D 
is in you..yeah.

CHORUS:
 C F C F D 
Don't you go, they'll make me cry, don't you go,
       Am7 C D 
girl, I would die...


INTERLUDE:  D C D C 

#3.
 D C D 
Don't make me spend my nights, without your tender love.
 D C 
Don't leave me just with dreams, cause dreams I have 
        D 
plenty of.

INTERLUDE:  D C D C 

OUTRO:
 C D C D C D C D 
I want you..I want you..I want you..I want you!!(Fade.)



A sixties smash from Kraziekhat.

All I Want Is You Live Tabs – Delirious

 -------------------------------------------------------------------------------
                             ALL I WANT IS YOU - Delirious?
-------------------------------------------------------------------------------

Tuning: Standard

While this is based off of the live version of the song, it's fairly similar to the
studio version.  There are
two guitars in this song.  The lead electric played by Stu G, and a delayed electric
played by Martin.
Martin simply plays the basic chords, but with an odd delayed/distorted effect that I
can't reproduce with my
gear.  The chords to the song are fairly simple, so you should be able to figure them
out where I haven't given
them.
Overall, I'm only tabbing Stu G's electric here, but based on that, you should be able
to figure out the rest
of the song (all the other guitars and synthesizers only really play chords).
The studio version features an additional acoustic guitar, but it basically just plays the
chords for the
pre-chorus, chorus, and bridge.
The studio version also features a non-delayed electric playing rhythm, playing
similarly to the acoustic,
except using power chords.
The one part of the song which differs considerably between the live and the studio
version is the solo.  And
even it isn't particularly noticeable.

Intro/Verse One:
(all palm muted)
e|---------------------------------------------------------------------|
B|---------------------------------------------------------------------|
G|---------------------------------------------------------------------|
D|---------------------------------------------------------------------| x5
A|--7-7-7-7-7-7-7-7--5-5-5-5-5-5-5-5--3-3-3-3-3-3-3-3--5-5-5-5-5-5-5-5-|
E|---------------------------------------------------------------------|

For the Pre-chorus, play these chords (timing not given): G, D, C2

For the Chorus, play these chords (timing not given): G, Em, C

Verse Two
e|-----------------------------------------------------|
B|-----------------------------------------------------|
G|------0---0--------0---0--------0---0--------0---0---|
D|----0---0---0----0---0---0----0---0---0----0---0---0-| x2
A|--7------------5------------3------------5-----------|
E|-----------------------------------------------------|

For the Bridge, play the following chords (timing not given): C, G/B, D, C

Solo (for the solo, basically slide to every non-repetitive note)
e|---------------------------------------------------------------------------|
B|---------------------------------------------------------------------------|
G|---------------------------------------------------------------------------|
D|--7~----9~----9-7--7--------------------------------------5----5-4--7------|
A|------------------------10----9----9--10--9--7----7-5--5---------------5-5-|
E|---------------------------------------------------------------------------|

e|---------------------------------------------------------------------------------|
B|---------------------------------------------------------------------------------|
G|---------------------------------------------------------------------------------|
D|----------------5--5--5----4--5--7----5-7-9------9----7----10----9---------------|
A|5----5-7-----7--------------------------------------------------------10h12p10---|
E|---------------------------------------------------------------------------------|

e|--------------------------|
B|--------------------------|
G|----------------------7~--|
D|-9----7----10----9--------|
A|--------------------------|
E|--------------------------|

In the studio version of the song, Stu G plays the latter part of the solo (beginning
with the first 9-7-10-9
part) several times over the outro to the song.

And that's all there is to it.


************************************

| /   slide up
| \   slide down
| h   hammer-on
| p   pull-off
| ~   vibrato
| +   harmonic
| x   Mute note
| b   Bend
| pb  Pre-bend
| br  Bend release
| pbr Pre-bend release
| brb Bend release ben

Youre The One That I Want chords – Lo-Fang V2

 Capo 2
           Am F C 
I got chills, they're multiplyin', and I'm losin' control
            E F Am 
'Cause the power you're supplyin', it's electrifyin'


                  C E F Am 
You better shape up, 'cause you need a man, and my heart is set on you
                  C E F Am 
You better shape up, you better understand, to my heart I must be true


REFRAIN:
            C F 
You're the one that I want
     C 
The one that I want
 Am G 
The one that I need


            Am F C 
If you're feeling some affection, that's too hard to convey
     E F Am 
Meditated by direction,  Baby feel your weight

                  C E F Am 
You better shape up, 'cause you need a man, and my heart is set on you
                  C E F Am 
You better shape up, you better understand, to my heart I must be true



REFRAIN:
            C F 
You're the one that I want
     C 
The one that I want
 Am G 
The one that I need

I Want Your Love chords – Transvision Vamp

 I want you Love - Transvision Vamp
 Del Bradley   No CAPO or to vocal taste
______________________________________________________
Please don't forget to rate and comment, 
Your feedback would be much appreciated, Thank you :)
_______________________________________________________


INTRO   E E7 E E7 E E7 E E7 E E7 E E7 E E7 E E7 E E7 E A E 
I don't want your money honey, I want your love
 E E7 E A E 
I don't want your car baby, I want your.... aahhhh!

 A E A E 
Oh I don't want your money, I want your love
 A B E A E         
I don't want your car, I want your OHHHHHH I want  your love

 E E7 A E 
I don't want your books on Marilyn or Bobby D
 E 
I don't want your records, your pictures Or anything
             E7 E A E     
I want your funky love

 A E E7 
I don't want your money, I want your love, ohh
 A B E            
I don't want your stars, I want your woh ahhhhhhh I want your love,
 E A E A 
I want your love, I want your love
 B E A E  ,  E A 
I don't want money honey, I want your love,            yeahhhh !


 A E E7 A E 
Well I love,love,love,I Love the way you move
 E E7 A E 
And I love,love,love,I love the way you,.. groove
 A E A E A      
I love your motivation, well I love your desper-ation
 E A E A E A 
I want your love, I want your love, I want your love
 A B 
You know that I don't want your money honey, I want your love

 B7 B 
I don't want your money honey, I want your love
 B7 B 
I don't want your money honey, I want your love
 B7 B E 
I don't want your money honey, I want your love
 E A E A 
I want your love, I want your love
 E A E A 
I want your love, I want your love
 E A 
I don't want your books on Marilyn or Bobby D
 E A A7 
Your pictures, your records, your friends or anything
 E A E A 
I want, oh I want, I wah wah wah ooooh
 E A E A 
I want your love, I want your love
 E A E A 
I want your love, I want your love
 E A 
I want your love, that's what I want
 E A 
I want your love, that's what I want
 E A 
I want your love, give it to me
 E A 
I want your love, love, love, love, love
 A E E7 E                 
I want your love...right now!

I Want You Tabs – Saint Raymond

 -------------------------------------------------------------------------------
                             I Want You - Saint Raymond
-------------------------------------------------------------------------------
: kingsleyrjones, Manchester UK.

Tuning: Standard 

Main 1st guitar parts. Catchy riffs galore.

Guitar Riff and Intro:

e|----------------7---------------------------(10)<-(Can be played as alternative to 7th on G)-|
B|--10-10-10-10-7---7-7-(7)-8-8-8-8-7----------------------------------------------------------|
G|------------------------------------9-9/11-9-7-----------------------------------------------|
D|---------------------------------------------------------------------------------------------|
A|---------------------------------------------------------------------------------------------|
E|---------------------------------------------------------------------------------------------|

Fills

e|------------------------------------10-------------------------------------|
B|---------------------------------------------------------------------------|
G|--7-7-7-7-7-9/11-9-7-9-9-9-9-7-9/11----------------------------------------|
D|---------------------------------------------------------------------------|
A|---------------------------------------------------------------------------|
E|---------------------------------------------------------------------------|

Chorus 1:

e|--14----------------------|
B|--15----------------------|
G|--14----------------------|
D|--------------------------|
A|--------------------------|
E|--------------------------|

Chorus 2 pt. 2:

e|--------------7------------------------------------------------------------|
B|--10-10-10-10---10-10-8-8-8-8-8-10-10--------------------------------------|
G|---------------------------------------------------------------------------|
D|---------------------------------------------------------------------------|
A|---------------------------------------------------------------------------|
E|---------------------------------------------------------------------------|

Instrumental:

e|---------------------------------------------------------------------------|
B|--8-7-----------------8-7--------------7-----------------------------------|
G|------9-7-7/9-9-7/9-9-----9-7--7/9-9-9---9-7-------------------------------|
D|---------------------------------------------------------------------------|
A|---------------------------------------------------------------------------|
E|---------------------------------------------------------------------------|

Order:
Intro (1 bar unplayed)
Intro Riff X2
Verse 1 = Fill played in between lines
Pre-Chorus (palm muting)
Chorus 1
Intro Riff
Verse 2 = Fill played in between lines
Pre-Chorus (palm muting)
Chorus 2 (enter half way through)
Instrumental
Bridge (nothing played)
Chorus 3 (nothing played)
Instrumental until finish

TUNE. ENJOY PLAYING.

Twitter: @KingsleyTheGoat

************************************

| /   slide up

************************************

I Want You But I Dont Need You chords – Momus V2

 Intro: A (8 bars)

   A Em 
I like you, and I'd like you to like me to like you
             F#7 
But I don't need you
                             Bm 
Don’t need you to want me to like you
   Adim7 A 
Because if you didn't like me
 A#dim7 D 
I would still like you, you see
       E F 
la la la
       E 
la la la


   A Em 
I lick you, I like you to like me to lick you
             F#7 
But I don't need you
                              Bm 
Don't need you to like me to lick you
    Adim7 A 
If your pleasure turned into pain
 A#dim7 D 
I would still lick for my personal gain
       E F 
la la la
       E 
la la la


   A Em 
I fuck you, and I love you to love me to fuck you
                     F#7 
But I don't fucking need you
                              Bm 
Don't need you to need me to fuck you
    Adim7 A 
If you need me to need you to fuck
 A#dim7 D 
That fucks everything up
       E F 
la la la
       E 
la la la


   C Gm 
I want you, and I want you to want me to want you
             A7 
But I don't need you
                              Dm 
Don't need you to need me to need you
             F C 
That's just me so take me or leave me
                  Gm 
But please don't need me
                              A7 
Don't need me to need you to need me
           F F#dim7 
Cos we're here one minute, the next we’re dead
    C 
So love me and leave me
     Gm 
But try not to need me
  A7 
Enough said
   Dm 
I want you, but I don't 
 E F E 
need you


 A Asus4 A Asus4 A Asus4 A A A Em F#7 Bm Adim7 A A#dim7 D E F E A Em 
I love you, and I love how you love how I love you
             F#7 
But I don't need you
                              Bm 
Don't need you to love me to love you
    Adim7 A 
If your love changed into hate
       A#dim7 D 
Would my love have been a mistake?
       E F 
la la la
       E 
la la la


              A Em 
So I'm gonna leave you, and I'd like you to leave me to leave you
             F#7 Bm 
But lover believe me, it isn't because I don't need you (you know I don't need you)
     Adim7 A 
All I wanted was to be wanted
            A#dim7 D 
But you're drowning me deep in you need to be needed
       E F 
   la la
       E 
la la la


   C Gm 
I want you, and I want you to want me to want you
             A7 
But I don't need you
                              Dm 
Don't need you to need me to need you
             F C 
That's just me so take me or leave me
                  Gm 
But please don't need me
                              A7 
Don't need me to need you to need me
           F F#dim7 
Cos we're here one minute, the next we're dead
    C 
So love me and leave me
     Gm 
Bu

Never Be What You Want Acoustic chords – We Are The In Crowd V2

 I did not figure these chords out myself, I merely copied them down from a cover video to help me learn the 
song since I didn't think the other acoustic version posted sounded quite right. Hopefully this will help 
you as much as it did me! Here's the video I used if you need help with the strumming patterns and such:


Tuning: Full Step Down (DGCFAD)
Chords Used:
(Chord names are pretty arbitrary. They’re just the closest thing to the standard tuning chords to help me
 remember what’s what. Don’t take what I’ve named them as their actual name.)
C: 330030
G: 330003
A: 332200
Em: 330020
 DM  (intro): 332000
E: 330220
G2: 330023
G3: 34553x



Intro

 C G A Em DM C G A C G A Em DM C G A  G(hold)



Verse

                 D C               
I remember the nights we spent under city lights
                               G         
This feelings got the best of me
                     D A                         
We were floating along to the sounds of a dead end town
      C                                            
but now that's just a memory



Pre-chorus

 G D C                        
I can't figure you out, you've got more fight in you
                                
than anybody else
 G D A                                  
And here's the part where I started to make my own damn decisions
 C                                                  
and make a name for myself
    

                                                  
Chorus

  C G             
I'll never be what you want
                         D                  
I wouldn't change any part of me
  E                                                
Just to make you stay
 C G         
You had a piece of my heart
                         D                 
But not enough to just run away
                                                         
'Cause I know what's best for me



Verse

  G D                                                        
Take all your big plans and throw them away
 C G           
I've got something in mind before we go separate ways 
             D A          
We ask the questions baby,
                   C                   
Who provides the answers?



Pre-chorus

 A                                                        
I'm scared to death and it shows
 Em                                                           
The flame burned out, but it glows
 C D A           
And the look in your eyes says things I don't wanna know
                            
It's time to go!
               G2 
Come closer!
                   C G3                                              
And I can't say anything, everything comes out the wrong way



Chorus

 C                                               
I'll never be what you want
 G D                    
I wouldn't change any part of me
   E                                                           
Just to make you stay
 C G          
You had a piece of my heart
                        D                     
But not enough to just run away
                                                         
'Cause i know what's best for me



Bridge

   C G D             

If Rain Is What You Want Tabs – Slipknot

 


SLIPKNOT 

IF RAIN IS WHAT YOU WANT


B-F#-B-E-G#-C#


 andherembrace





0:17

-----------------------------------------------------------------------------------------|
-----------------------------------------------------------------------------------------|
----14---14-15-14---14----14---14-15-14---14----14---14-15-14---14----14---14-15-14---15-|
-----------------------------------------------------------------------------------------|
-12----12--------12----12----12--------12----13----13--------13----13----13--------13----|
-----------------------------------------------------------------------------------------|


-----------------------------------------------------------------------------------------|
-----------------------------------------------------------------------------------------|
----14---14-15-14---14----14---14-15-14---14----14---14-15-14---14----14---14-15-14---15-|
-----------------------------------------------------------------------------------------|
-12----12--------12----12----12--------12----13----13--------13----13----13--------13----|
-----------------------------------------------------------------------------------------|


-----------------------------------------------------------------------------------------|
-----------------------------------------------------------------------------------------|
----14---14-15-14---14----14---14-15-14---14----14---14-15-14---14----14---14-15-14---15-|
-----------------------------------------------------------------------------------------|
-12----12--------12----12----12--------12----13----13--------13----13----13--------13----|
-----------------------------------------------------------------------------------------|


0:40


L
-----------------------------------------------------------------------------------------|
-----------------------------------------------------------------------------------------|
----14---14-15-14---14----14---14-15-14---14----14---14-15-14---14----14---14-15-14---15-|
-----------------------------------------------------------------------------------------|
-12----12--------12----12----12--------12----13----13--------13----13----13--------13----|
-----------------------------------------------------------------------------------------|

R
-------------------------------------------------------------------------------------|
-------------------------------------------------------------------------------------|
---7-----7-8-7-----7------7-----7-8-7----7-----7-----7-8-7----7-----7-----7-8-7-----7|
-------------------------------------------------------------------------------------|
5-----5---------5-----5------5--------5-----6-----6--------6-----6-----6---------6---|
-------------------------------------------------------------------------------------|



L
-----------------------------------------------------------------------------------------|
-----------------------------------------------------------------------------------------|
----14---14-15-14---14----14---14-15-14---14----14---14-15-14---14----14---14-15-14---15-|
-----------------------------------------------------------------------------------------|
-12----12--------12----12----12--------12----13----13--------13----13----13--------13----|
-----------------------------------------------------------------------------------------|


R
-------------------------------------------------------------------------------------|
-------------------------------------------------------------------------------------|
---7-----7-8-7-----7------7-----7-8-7----7-----7-----7-8-7----7-----7-----7-8-7-----7|
-------------------------------------------------------------------------------------|
5-----5---------5-----5------5--------5-----6-----6--------6-----6-----6---------6---|
-------------------------------------------------------------------------------------|



L
-----------------------------------------------------------------------------------------|
--

All I Want Tabs – Kodaline

 -------------------------------------------------------------------------------
                             ALL I WANT - Kodaline
-------------------------------------------------------------------------------
In the "In a Perfect World" album version, this song is standard, not a half step down.

I know there are others tabs, but I think there are some mistakes in the solo part. 
This tab contain chords, strum pattern, a piano part transcribed and the eletric guitar.


 STRUM  acoustic - DOWN-UP-DOWN-UP-DOWN-UP  DOWN-UP-DOWN-UP-DOWN-UP (repeat and repeat)
PATTERN  guitar      \  /   \   /   \   /     \  /   \   /   \   /

-----
INTRO                         
-----                         
C (alternate with C and C9)   
                              
-----
VERSE
-----
 C            F       C
All I want is nothing more
   C                 G     Am
To hear you knocking at my door
          F                          C
'Cause if I could see your face once more
        F                      C
I could die as a happy man I'm sure

C                  F        C
When you said your last goodbye
  C             G     Am
I died a little bit inside
  F                          C
I lay in tears in bed all night
  F                      C     G
Alone without you by my side

------
CHORUS
------
           Am
But if you loved me
            F
Why did you leave me
        C             G
Take my body, take my body
      Am                 F
All I want is, and all I need is
            C
To find somebody
             G          C (Begin the Ohh's part)
I'll find somebody like you

----------
Ohh's part - (This is what the piano do, trasncribed for guitar.)
----------
    C                       F           C
e|---------------------------------------------------------------------------------------|
B|--5-----5-----5-----5-----6-----6-----5-----5-----5-----5-----5-----5-----5-----5------|
G|----5-----5-----5-----5-----5-----5-----5-----5-----5-----5-----5-----5-----5-----5----|
D|------5-----5-----5-----5-----5-----5-----5-----5-----5-----5-----5-----5-----5-----5--|
A|---------------------------------------------------------------------------------------|
E|---------------------------------------------------------------------------------------|
    C                       G                 Am
e|---------------------------------------------------------------------------------------|
B|--5-----5-----5-----5-----6-----6-----5-----5-----5-----5-----5-----5-----5-----5------|
G|----5-----5-----5-----5-----7-----7-----5-----5-----5-----5-----5-----5-----5-----5----|
D|------5-----5-----5-----5-----5-----5-----7-----7-----7-----7-----7-----7-----7-----7--|
A|---------------------------------------------------------------------------------------|
E|---------------------------------------------------------------------------------------|
    F                                   C
e|---------------------------------------------------------------------------------------|
B|--6-----6-----6-----6-----6-----6-----5-----5-----5-----5-----5-----5-----5-----5------|
G|----5-----5-----5-----5-----5-----5-----5-----5-----5-----5-----5-----5-----5-----5----|
D|------7-----7-----7-----7-----7-----7-----5-----5-----5-----5-----5-----5-----5-----5--|
A|---------------------------------------------------------------------------------------|
E|---------------------------------------------------------------------------------------|
    F                                    C
e|---------------------------------------------------------------------------------------|
B|--3-----3-----3-----3-----3-----3------------------------------------------------------|
G|----5-----5-----5-----5-----5-----5----5-----------------------------------------------|
D|------3-----3-----3-----3-----3-----3--------------------------------------------------|
A|---------------------------------------------------------------------------------------|
E|---------------------------------------

Ellie Greenwich – I Want You To Be My Baby chords

 I Want You To Be My Baby:Ellie Greenwich.
#83 on BB Hot 100 on UNITED ARTISTS Records
in 1967.

INTRO:  E D E  (x2)  E 

CHORUS:
 E A 
I (I) I want (I want) I want you (I want you)
 E B 
I want you to (I want you to) I want you to 
             Gm7 E 
be (what) I want you to be my baby.

CHORUS:
 E A 
Will (will) will you (will you) now, will you
                          E 
please (will you please) will you please tell
                        B 
(will you please tell) will you please tell me 
           Gm7 E 
(what) if you're going to be my baby.

#3.
 E 
Listen to your mama and you never will forget it.

And if anybody wonders you can tell them that I 

said it.
 A 
The only thing I know is that I never can forget 
                E 
you..I've been longing for you, baby, ever since 

the day I met you.
   B 
I got you where I want you I'm never gonna let you
     E 
get away from me.

#4.
 E 
Do what I tell you I'm the girl for you and so you'd 

better start to face it.

If you ever lose my love you know you never can replace 

it.
   A 
I think it's time for you to start to give me some loving..
 E 
carrying a torch for you that's hotter than an oven.
      B E 
It's time for you and me to do a little turtle-doving, baby,

hold me tight and do what I tell you.

CHORUS:
 E                           
I  want you..to be my baby..I want you, to be my baby.
 E                             
I want you, to be my baby..I want you, to be my baby.

I want you to be my baby..

CHORUS:
 E                           
I  want you..to be my baby..I want you, to be my baby.
 E                             
I want you, to be my baby..I want you, to be my baby.

I want you to be my baby..


CHORUS:
 E A 
I (I) I want (I want) I want you (I want you)
 E B 
I want you to (I want you to) I want you to 
             Gm7 E 
be (what) I want you to be my baby.

 E A 
I (I) I want (I want) I want you (I want you)
 E B 
I want you to (I want you to) I want you to 
             Gm7 E 
be (what) I want you to be my baby.

CHORUS:
 F                         
I  want you..to be my baby..I want you, to be my baby.
 F                            
I want you, to be my baby..I want you, to be my baby.

I want you to be my baby..

CHORUS:
 F#                        
I  want you..to be my baby..I want you, to be my baby.
 F#                            
I want you, to be my baby..I want you, to be my baby.

I want you to be my baby..

OUTRO:
 G                        
I  want you..to be my baby..I want you, to be my baby.
 G                            
I want you, to be my baby..I want you, to be my baby.

I want you to be my baby..(Fade.)


A sixties smash from Kraziekhat.

Do You Want To Build A Snowman chords – Frozen V8

 I put this together for piano players, it's in the original key. Enjoy!

                        Eb 
Do you want to build a snowman?
                      Bb 
Come on let's go and play
                 Cm 
I never see you anymore
      Ab 
Come out the door,
                       Bb 
It's like you've gone away
                    Cm 
We used to be best buddies
     Eb 
And now we're not
   Cm G Ab 
I wish you would tell me why
                        Eb 
Do you want to build a snowman?
                         Ab 
It doesn't have to be a Snowman

Young Elsa: Go away, Anna
              Abm Eb 
Toddler Anna: Okay, bye



                         Eb 
Do you wanna build a snowman?
                               Bb 
Or ride our bike around the halls
                           Cm 
I think some company is overdue
                 Ab Bb 
I've started talking to the pictures on the walls
(Hang in there, Joan)
                    Cm 
It gets a little lonely
                   Eb 
All these empty rooms
          Cm G Ab 
Just watching the hours tick by
(Tic-Tock, Tic-Tock)


                            Eb 
Please, I know you're in there
                                Bb 
People are asking where you've been
                                       Cm 
They say have courage, and I'm trying to
                         Ab Bb 
I'm right out here for you, just let me in
               Cm 
We only have each other
            Eb 
It's just you and me
 Cm G Ab 
What are we gonna do?
                         Eb 
Do you wanna build a snowman?

Id Love You To Want Me chords – Lobo V4

 Id Love You To Want Me  -  Lobo
        
by batucaca       (Original: Capo III.Bund)  )

Intro:  G , G , G / Gsus4/G G Gsus4/G    
When I saw you standing there                   
                     Am  ,           Asus2 / Am 
I about fell off my chair
                              C Cmaj7 /  D 
When you moved your mouth to speak
                           G Gsus4/G    
I felt the blood go to my feet

 G Gsus4/G    
Now it took time for me to know   
                          Am Asus2 / Am 
What you tried so not to show
                           C Cmaj7  / D 
Something in my soul just cried
                             G Gsus4/G        
I see the want in your blue eyes


Refrain:
 G Am 
Baby, I'd love you to want me
                C 
The way that I want you
                 G Gsus4/G        
The way that it should be
                        Am 
Baby, you'd love me to want you
                C 
The way that I want to
          D G Gsus4/G       
If you'd only let it be


 G Gsus4/G    
You told yourself years ago                        
                               Am Asus2 / Am 
You'd never let your feelings show
                         C Cmaj7  / D 
The obligation that you made
                         G Gsus4/G           
For the title that they gave





Refrain:
 G Am 
Baby, I'd love you to want me
                C 
The way that I want you
                 G Gsus4/G        
The way that it should be
                        Am 
Baby, you'd love me to want you
                C 
The way that I want to
          D G Gsus4/G      
If you'd only let it be


Instrumental:  G ,  Am ,  C ,  G G Gsus4/G    
Now it took time for me to know                     
                          Am Asus2 / Am 
What you tried so not to show
                           C Cmaj7 /  D 
Something in my soul just cried
                             G Gsus4/G      
I see the want in your blue eyes


Refrain: 
 G Am 
Baby, I'd love you to want me
                C 
The way that I want you
                 G Gsus4/G        
The way that it should be
                        Am 
Baby, you'd love me to want you
                C 
The way that I want to
          D G Gsus4/G    
If you'd only let it be             (2x)

Outro: (Instrumental:)  G ,  Am ,  C ,  G

What Do You Want With Me chords – Chad And Jeremy

 What Do You Want With Me:Chad And Jeremy.
#9 A.C. and #51 on BB Hot 100 on WORLD ARTISTS?
COLUMBIA Records in 1965.


INTRO:  E B E F 

#1.
 E Abm F#m Ab 
What do you want with me..oh, baby, can't you see..
                    Dbm 
My love and I were happy before you came along..
           F# A E 
and it'll stay that way, cause I won't let her down.
             B F#m B E B 
I love her, can't you see..what do you want with me?

#2.
 E Abm F#m Ab 
What do you want with me..oh, baby, I can see..you only 
         Dbm 
want to break us up and use me for a time.
             F#m Am E 
Then you'll leave me crying..I've heard it all before..
      B F#m A B E B Db F#  
your other boys have told me.....what do you want with me?

CHORUS:
     Dbm A Dbm A 
The love I've got...is something else again.
       E Abm A 
She's loving, she's true..let me tell you..
       B E B 
she's not a bit like you.

#3.
         E E Abm F#m 
And I'm asking you a question..what do you want with me?
                      Ab Dbm Db 
Why don't you let me be?..I know it would be easy to fool 
                                F#m A 
around with you but you should know by now..I've promised 
       Ab 
to be true.
   E Abm F#m A B A E B E F# //
I love her, can't you see?.....what do you want with me?

CHORUS:
     Dbm A Dbm A 
The love I've got...is something else again.
       E Abm A 
She's loving, she's true..let me tell you..
       B E B 
she's not a bit like you.

#4.
         E E Abm F#m 
And I'm asking you a question..what do you want with me?
                      Ab Dbm Db 
Why don't you let me be?..I know it would be easy to fool 
                                F#m A 
around with you but you should know by now..I've promised 
       E B 
to be true.
   E Abm F#m A B E B 
I love her, can't you see?.....what do you want with me?

OUTRO:
 E B F#m B E B E 
I love her, can't you see....what do you want with me?


A sixties smash from Kraziekhat.