Tag: wars

Micro Wars chords – Kingswood

 ---------------------------Kingswood - Micro Wars,---------------------------         

Open Chords used are C, Dm, Am, F, G, 
For the chorus hammer on the D (3rd fret on b string) whilst playing the Am
Enjoy!


 C 
You say I'm immature,
 Dm Am 
But baby what's the rush to get old?
 C 
I may be insecure,
 Dm Am 
But least I've got the guts to be bold



 C Dm Am 
They say the good die young, it's true

 C Dm Am 
So let's make the most of me and you



 C 
Now I'm of the mind
 Dm Am 
We all should have the guts to be bold
 C 
And do you have the time?
 Dm Am 
Cause I'm not in a rush to get old, to get old


     
 C Dm Am 
They say the good die young, it's true

 C Dm Am 
So let's make the most of me and you

   C Dm Am 
And take my hand and take my heart

   C Dm Am 
'Cause life will end up tearing us apart


 C Dm Am C Dm F F Am C Am       
Won't you take me to the sea?
 Dm C G Am 
Find a place just right for me
 F Am C Am      
Tell me everything will be 
  G F G F 
just fine, just fine



 C Dm Am 
They say the good die young, it's true

 C Dm Am 
So let's make the most of me and you

   C Dm Am 
And take my hand and take my heart

   C Dm Am 
'Cause life will end up tearing us apart




 ThatWogBoy (Paul S.)

Weddings And Wars chords – Will Varley

 Capo 2

 Am C 
'Bang' goes the big bang in the darkness and thunder.
 Am C 
Adam and Eve were strands of bacteria.
 Am C 
Blind we crawled with the birds and the bees,
 F G 
Few years on we climbed down from the trees,
 Am C 
And were standin' in Africa, lookin' at the sky
 Am C 
Saying 'why we're here? What happens when we die? '
 Am C 
We used god as a word for the things we can't see,
 F G 
Now put on some clothes and let's wait for tv.

 Am C 
Well it doesn't take 'till we're painting caves,
 Am C 
Makin' some men kings and other men slaves,
 Am C 
Sayin' God is our reason, God is our leader,
 F G 
God spoke to me and he told me to kill ya. '

 Am C 
We spread like a virus to every dark corner,
 Am C 
Greeks and romans are layin' down borders.
 Am C 
The slaves and the soldiers, the queens and the kings,
 F G 
Wherever they were, they all used to sing:

 Am G F C 
Birth, death, weddings and wars,
 Am G F C 
That's all we are good for.
 Am G F C 
If all of the past was played as a song,
 Am G C 
Then our lives are a beat of the drum.

Invading, enslaving, then trading the plunder,
Tobaco and opium, tea leaves and sugar.
Empires built with the bones of the slaughtered.
A barrel of booze in return for your daughters and

Birth, death, weddings and wars,
Naissance, décès, mariage et guerre,
Above the same earth, beneath the same stars,
You can't hide the beast that we are.

Well by the dark ages we're gettin' into guns,
Still fightin' over god and who's got the right ones,
Still singin' and dancin', now we're paintin' on canvas,
Pasting the time with our s** and our violence.

The west gets rich and it strangles the earth,
Romeo and Juliet can't make it work.
Factories, A-Bombs and Flying-Machines,
Finally someone invents the tv.

And it's birth, death, weddings and wars,
Naissance, décès, mariage et guerre,
Above the same earth, beneath the same stars,
You can't hide the beast that we are.

Instead of hunting now we go to Tescos,
Instead of talking now we wear headphones,
Instead of mountains we're heading for mars,
Instead of god we have credit cards.

And we're still here two thousand and somethin',
No peace, economy is crashing,
Still singin' and dancin' and looking at the sky, sayin'
'Why are we here? What happens when we die? '

Singing birth, death, weddings and wars,
That's all we're good for.

If all of the past was played as a song,
Then our lives are a beat of the drum,
Then our lives are a beat of the drum.

Oh Henry Tabs by The Civil Wars V2

 -------------------------------------------------------------------------------
                             OH HENRY - The Civil Wars
-------------------------------------------------------------------------------
: Charlie Hillman      
 charliehillman100@hotmail.com

Tried out the other version and saw a few mistakes, and wasn't the most helpful 
tab to learn, so I decided to make my own based on his :)
I had a good stab at doing the strumming patterns, but to properly get it you have 
to listen to the song a bit. 

Tuning: DADGAD 
Capo on 3rd (Live version is on 5th)

D - Downstroke

U - Upstroke 


Intro                         

Play the first bar, then the bar for the first time only. Repeat the first bar, 
then playing the bar for the second 
time only. Do a few random strokes on that chord at the end leading into the verse. 

                              First Time Only                  Second Time Only
                              __________________               __________________
   D U  U D U  U D U  U D U  |  U D U  U D U  U D U  D U  D U |  U D U  D U  D U  D D 
                             |                                |                     
D|-0-0--0-0-0--0-0-0--0-0-0-|| -0-0-0--0-0-0--0-0-0--0-0--0-0-| -0-0-0--0-0--0-0----0--|
A|-0-0--0-0-0--0-0-0--0-0-0-|| -0-0-0--0-0-0--0-0-0--0-0--0-0-| -0-0-0--0-0--0-0----0--|
G|-2-2--2-2-2--2-2-2--2-2-2-|| -2-2-2--2-2-2--2-2-0--2-2--2-2-| -2-2-0--2-2--2-2----2--|
D|-0-0--0-0h3--0-0-0--0-0-0-|| -0-0-0--0-0h3--0-0-0--0-0--0-0-| -0-0-0--0-0--0-0--0-0--|
A|-0h3--0-0-0--0-0h3--0-0-0-|| -0-0h3--0-0-0--0-0-0--0-0--0-0-| -0-0-0--0-0--0-0--0-0--|
D|-0-0--0-0-0--0-0-0--0-0-0-|| -0-0-0--0-0-0--0-3/5--3-3--2-2-| -0-3/5--3-3--2-2--0-0--|

Verse 
                                   D  U D U  D   D  U  D
                                                                     
D|-0--------0---0---0--------------0--0-0-0--0---0--0--0--------------|
A|-0--------0---0---0--------------0--0-0-0--0---0--0--0--------------|
G|-2--------2---2---2--------------5--5-5-5--0---2--2--2--------------|
D|-0----0---0---0---4-few strokes--0--0-0-0--0---0--0--4-few strokes--|
A|-0----0---0---0---0--------------0--0-0-0--0---0--0--0--------------|
D|-0----0---0---0---0--------------5--5-5-5--4---3--0--0------------- |
   Oh the Grass is Green           Everywhere but underneath
   I got a wedding band           In the name of a wondering man 
 
                                     1.                   2.
                                     __________           _________
   D   D D    D   D U D U    D      |  U D   D D    D    |
                                    |                    |
D|----------------0-0-0-0----0-----|| -0-0---0-0----0----|-0--0--------|
A|----------------0-0-0-0----0-----|| -0-3p0-0-3p0--0----|-0--0--------|
G|-2-----2--------2-2-0-2----2-----|| -2-2---0-2----0----|-2--2--------|
D|-0---0-0----0---0-0-0-0----0-----|| -0-0---0-0----0----|-0--0--------|
A|-3p0-0-3p0--0---0-0-0-0----0-----|| -0-----------------|-0--0--------|
D|-0---0-0----0---0-3/5-3/2--0-----|| -0-----------------|-0--0--------|
            Oooh so   it    seems 
           I love the best I can


Chorus                                                                    1.
                                                                          _____________
                                                                         |
D|-2------------------0------------------2---------------0--------------|| -0-------------|
A|-2------------------0------------------2---------------0--------------|| -0-------------|
G|-2-few strokes------0-few strokes------2-few strokes---0-few strokes--|| -2-few strokes-|
D|-2------------------0------------------2---------------0--------------|| -0-------------|
A|-0------------------0------------------0---------------0--------------|| -0-------------|
D|--------------------5-----------------