Tag: well

Fare Thee Well Dinks Song chords – Oscar Isaac Vsion 9

 This is the version that Llewyn begins to sing at the Gorfein's dinner. It sounds nice with a bit of harmony
but it's better for going solo when you don't have a partner to sing along. This version differs slightly in 
the chord progression than the recorded version of the song. No capo originally, but use a capo if you need
to.
Tuning is standard. The G/F# is only played for a beat as a walkdown, and it's also done between the last
G and Em of the verse chords.


 G C G 
( G/F# )  Em C D G Em C D G   ( C G )

          G C G 
If I had wings, like Noah's dove
     ( G/F# )   Em C D 
I'd fly the river, to the one I love
          G Em C D G      ( C G )
Fare thee well, my honey, fare thee well

              G C G 
Well I had a man, who was long and tall
      ( G/F# )   Em C D 
He moved his body like a cannonball
          G Em C D G      ( C G )
Fare thee well, my honey, fare thee well

                G C G 
I remember one evening, in the pouring rain
   ( G/F# )   Em C D 
And in my heart was an aching pain
          G Em C D G      ( C G )
Fare thee well, my honey, fare thee well

(Inst. Break)
 G C G 
( G/F# )  Em C D G Em C D G   ( C G )

       G C G 
Muddy river, is muddy and wild
      ( G/F# )   Em C D 
Can't give a bloody for my unborn child
          G Em C D G      ( C G )
Fare thee well, my honey, fare thee well

              G C G 
So show us a bird, flying high above
          ( G/F# )   Em C D 
Life ain't worth living without the one you love
          G Em C D G      ( C G )
Fare thee well, my honey, fare thee well

          G Em C D G 
Fare thee well, my honey, fare thee well

Well Be Okay Tabs – With Confidence

 With Confidence
   We'll Be Okay

By: AJ Booker

Guitar 1: Luke
Guitar 2: Ini

VERSE:
Guitar 1 and 2:
e|-----------------------------|
B|-----------------------------|
G|--7-7---4-4---2-2------------|
D|--7-7---4-4---2-2---5-5-555--|
A|--5-5---2-2---0-0---5-5-555--|
E|--------------------3-3-333--| x3

e|---------------------|
B|---------------------|
G|--7-7---4-4---2------|
D|--7-7---4-4---2-hold-|
A|--5-5---2-2---0------|
E|---------------------|

e|-----------------------------|
B|-----------------------------|
G|--7-7---4-4---2-2------------|
D|--7-7---4-4---2-2---5-5-555--|
A|--5-5---2-2---0-0---5-5-555--|
E|--------------------3-3-333--| x4


Over the second and last time repeated, Guitar 2 plays:
e|---------------------------------------------|
B|-----15-14-10--------------15-14-10----------|
G|---14----------16-14-----14------------------|
D|-12----------12--------12----------12-14-12--|
A|---------------------------------------------|
E|---------------------------------------------|


PRECHORUS:
Guitar 1 only
e|------------|
B|------------|
G|-6/7-7-6-7--|
D|-6/7-7-6-7--|
A|-4/5-5-4-5--|
E|------------| x3

CHORUS:
Guitar 1 and 2:
e|--------------------------------------|
B|--------------------------------------|
G|-77777777-44444444----------22222222--|
D|-77777777-44444444-55555555-22222222--|
A|-55555555-22222222-55555555-00000000--|
E|-------------------33333333-----------| x2

2ND VERSE (intro):
Guitar 1:
e|--------------------------------------------------|
B|--------------------------------------------------|
G|--7-7---4-4---2-2--------------7-7---4-4---2------|
D|--7-7---4-4---2-2---5-5-555----7-7---4-4---2-hold-|
A|--5-5---2-2---0-0---5-5-555----5-5---2-2---0------|
E|--------------------3-3-333-----------------------|

Guitar 2:
e|---------------------------------------------|
B|-----15-14-10--------------15-14-10----------|
G|---14----------16-14-----14------------------|
D|-12----------12--------12----------12-14-12--|
A|---------------------------------------------|
E|---------------------------------------------|

I'm not too sure what the play during the actual verse, but I just play the
chords from the intro but palm muted and 4 times on each like:
e|----------------------|
B|----------------------|
G|-7777-4444-2222-------|
D|-7777-4444-2222-5555--|
A|-5555-2222-0000-5555--|
E|----------------3333--| x2
   **** **** **** ****

PRECHORUS:
Guitar 1 only
e|-------****---------****---------****-----------------------|
B|-------****---------****---------****-----------------------|
G|-6/7-7-****---6/7-7-****---6/7-7-****--7--------------------|
D|-6/7-7-****---6/7-7-****---6/7-7-****--7--------------------|
A|-4/5-5-****---4/5-5-****---4/5-5-****--5-hold---------------|
E|-------****---------****---------****----------*pickslide*--|

CHORUS:
Guitar 1 and 2:
e|--------------------------------------|
B|--------------------------------------|
G|-77777777-44444444----------22222222--|
D|-77777777-44444444-55555555-22222222--|
A|-55555555-22222222-55555555-00000000--|
E|-------------------33333333-----------| x2

BRIDGE:
Guitar 1 and 2:
e|------------------------------------------------|
B|------------------------------------------------|
G|-7-4-7-----7-4-7-6---7-4-7-----7-4-7-6--7777777-|
D|-7-4-7-----7-4-7-6---7-4-7-----7-4-7-6--7777777-|
A|-5-2-5-----5-2-5-4---5-2-5-----5-2-5-4--5555555-|
E|------------------------------------------------|
                                          *******


CHORUS:
Guitar 1 and 2:
e|----------------------------------------------------------------------------|
B|----------------------------------------------------------------------------|
G|-7-7-4-4--44444444----------22222222--77777777-44444444----------22222222---|
D|-7-7-4-4--44444444-55555555-22222222--77777777-44444444-55555555-22222222---|
A|-5-5-2-2--22222222-55555555-00000000--55555555-22222222-55555555-00000000---|
E|-------------------33333333------------------------------33333333-----------|

OUTTRO:
Guita

She Treats Me Well Tabs – Ben Howard

 -----------------------------------------------------------------
                She Treats Me Well - Ben Howard
-----------------------------------------------------------------

 : Aeonoptic
 aeonoptic

****Tuning: CGBbGFBb******

Capo 5 except 6th string (sounds as CCEbCBbEb, open Cm7; tab is relative to capo for all covered strings)
x= thumb slap

Intro/verses:
Bb|------0-0----0-----|-------------------|--0----0--|------0-----0----|---------------0|
F |------0----0---0---|--------2-2--------|-5-h7--7p5|------------0----|----------------|
G |---2--2----2---2---|------0-0-0-2p0----|3---------|---2--------2----|--------0----0--|
Bb|------0----0-------|----0--------------|----------|------------0----|----0h7---------|
G |-------------------|----------------0--|----------|-----------------|----------------|
C |10---------------10|7h8-----0---------0|----------|10-------10----10|7h8-------0-----|

Bb|---------------|-------0------0----|--------------0----|--0---0-0------|
F |---------------|--------------0----|----------0--------|-5-h7-7-7p5----|
G |---------------|---2----------2----|------0-----0---0--|3--------------|
Bb|--4p2-----2p0--|--------------0----|----0--------------|---------------|
G |---------------|----------0h3------|-------------------|---------------|
C |0-----x-0-----x|10---x----------x-0|7h8----0----------x|------------x-0|

Bb |------0---------7--|----------0-0-------|
F |----------------0--|----------2---2--5p2|
G |---2----2----2-----|------0---0---------|
Bb|-------------------|----0-----0---------|
G |-------------------|--------------------|
C |10--------10------x|7h8-----0-----------|

Basically the same under the verses with some variation in picking

Chorus:
Bb|--------|---------|--------|---------7-5-4|---------7-5-4|--------|---------|------|---+7-|
F |--------|---------|--------|--------------|--------------|--------|---------|---0h2|---+7-|
G |--------|---------|--------|--------------|--------------|--------|---------|---0--|---+7-|
Bb|10-9----|---------|10-9----|--------------|--------------|10-9----|---------|------|---+7-|
G |--------|---------|--------|--------------|--------------|--------|---------|------|------|
C |5--5-3-x|0-x-10-x-|5--5-3-x|0-x-10-x------|0-x-10-x------|5--5-3-x|0-x-10-x-|0-----|0-----|
 
There's a second guitar arpeggiating under the chorus, if you want to emulate it
simply arpeggiate the capoed strings

Next verses are again variations of the above, and chorus is identical

Outro:
Bb|--+7----7br9-------|---+7----7br9-----|--+7----7br9-------|--+7-----------|
F |-----+7------7br8p5|------+7------7br8|-----+7------7br8p5|-----+7-8p7-5-5|
G |-------------------|------------------|-------------------|---------------|
Bb|-------------------|------------------|-------------------|---------------|
G |-------------------|------------------|-------------------|---------------|
C |0------------------|0-----------------|0------------------|0--------------|

Bb|-----------------5-5|----------------5--|-----------------5-5|------------------5|
F |-----------------0-0|----------------0-0|-----------------0-0|------------------0|
G |-----------------0-0|----------------0--|-----------------0-0|------------------0|
Bb|----7---4-----2--0-0|----7---4-----2-0--|----7---4-----2--0-0|----7---4---4p2p0--|
G |--7---5-----3-------|--7---5-----3------|--7---5-----3-------|--7---5------------| x2
C |0---------x---------|0---------x--------|0---------x---------|0---------0--------|

The remainder of the outro is essentially just this with harmonics instead of
the descending plucked bit, which I can't quite work out,
but I believe it's on the 7th and 5th fret

| /  slide up
| \  slide down
| h  hammer-on
| p  pull-off
| ~  vibrato
| +  harmonic
| x  Mute note

Well Meet Again chords – Anne Murray

 We’ll Meet Again:Anne Murray.
Album - I'll Be Seeing You - on
Straight Way Records in 2004.

INTRO:  C A D  G..(x2)

#1.
 C E7 A7 
We'll meet again don't know where don't 

know when.
     D7 G7 
But I know we'll meet again some sunny day.
 C E7 A7 
Keep smiling through just like you always do
          D7 G7              
Till the blue skies drive the dark clouds far 
  C F C 
away.

CHORUS:
 C C7 
So, will you please say hello to the folks 
                         F 
that I know..tell them, I won't be long. 
            D7 
They'll be happy to know, that as you saw me 
           G7 
go, I was singin' this song.

#2.
 C E7 A7 
We'll meet again don't know where don't 

know when.
     D7 G7 C A D G 
But I know we'll meet again some sunny day.


INTERLUDE:  C E7 A7 D7 Dm7  G..C  E7 A7 D7 Dm7 C 


CHORUS:
 C C7 
So, will you please say hello to the folks 
                         F 
that I know..tell them, I won't be long. 
            D7 
They'll be happy to know, that as you saw me 
           G7 
go, I was singin' this song.

#3.
 C E7 A7 
We'll meet again don't know where don't 

know when.
     D7 G7 C   
But I know we'll meet again some sunny day.

OUTRO:
 D7 G7 C A D G 
I know we'll meet again some sunny day.

..C A D G C..(Fade.)



A 2000 smash from Kraziekhat.

Get Well chords – Icon For Hire V2

 Capo 3

 Em 
We throw tantrums like parties 
 C D                 
We're not happy 'til everyone knows we're sick 
 Em 
And that's just how we like it 
 C D 
We've hurt bad enough, right, we've earned it 

 Em 
Don't tell the others but it's all getting old 
         C D 
I mean how many more times must our stories be told? 
 C 
And being lonely's only fun in a group 
 D 
It sort of loses it's charm when it's true 

 Em C D A 
I meant it when I said I wanna get well, I wanna get well 
 Em C 
Are the rest of you so content
  D A 
Stay where you are but it hurts like hell
 C 
And I'm sure it's fun at first
 D A 
Test your pulse and check your vitals 
 Em C 
If it's only a game you lost me
 D 
I quit it with the suicidal recital

 Em 
So now you know all my secrets 
 C D 
I want out, I know I don't need this 
 Em 
Can you find me friends that don't rank me on what I've been through 
 C D 
The more battle scars the more attention it gets you

 Em 
Don't tell the others but it's all getting old 
         C D 
I mean how many more times must our stories be told? 
 C 
And being lonely's only fun in a group 
 D 
It sort of loses it's charm when it's true 

 Em C D A 
I meant it when I said I wanna get well, I wanna get well 
 Em C 
Are the rest of you so content
  D A 
Stay where you are but it hurts like hell
 C 
And I'm sure it's fun at first
 D A 
Test your pulse and check your vitals 
 Em C 
If it's only a game you lost me
 D 
I quit it with the suicidal recital

 Em 
Yeah we should've known it would end this way
 C D  
What did you expect, pretend it all away 
 C 
And all we've got left is a sorry pile of hearts 
 D 
I'm getting out, gonna write myself a new start 
 Em 
Come on, dry your eyes, meet me on the other side 
         C D 
Run as fast as you can and we'll make it out alive 
 C 
We know better now, we don't have to live like this 
 D 
Go tell them all we don't have to live like this

 Em C D 
I meant it when I said I wanna get well

 Em C D A 
I meant it when I said I wanna get well, I wanna get well 
 Em C 
Are the rest of you so content
  D A 
Stay where you are but it hurts like hell
 C 
And I'm sure it's fun at first
 D A 
Test your pulse and check your vitals 
 Em C 
If it's only a game you lost me
 D 
I quit it with the suicidal recital
 Em C 
If it's only a game you lost me
 D 
I quit it with the suicidal recital

Might As Well Be Mars chords – Brittany Underwood V2

 MIGHT AS WELL BE MARS
Intro:  C#m  x2

 C#m Asus2 E 
They tell me its nice this time of year
          B9 
Down on earth
 C#m Asus2 
But My head has been in the clouds
             E B9 
I'm acting weird and lost for words.

 Asus2 
Falling like the stars I'm falling fast and hard 

for something out of reach

 E  
I could be there but you wouldn't see me
 B9 Asus2 
hover in the air like I'm just like a daydream, oh
              E B9 
why does it feel so far?
 E                      
Close enough to touch but you're looking through me
 B9 
In the same room a smile away feels 
 Asus2 E F#m 
miles from where you are
 Asus2 C#m 
Might as well be Mars


Never been bound by gravity But I am now
You have made a human out of me and pulled me down

Falling like the stars I'm falling fast and hard
for something I can't reach.

I could be there but you wouldn't see me
hover in the air like I'm just like a daydream, oh
why does it feel so far?
Close enough to touch but you're looking through me
In the same rooma smile away feels 
miles from where you are
Might as well be Mars.

                         B9 
Oh, it might as well be Mars

               C#m Asus2 
Might as well be another galaxy
              C#m Asus2 B9 
Calling long distance from a star


I could be there but you wouldn't see me
hover in the air like I'm just like a daydream, oh
why does it feel so far?
Close enough to touch but you're looking through me
In the same rooma smile away feels 
miles from where you are

 Asus2 C#m 
Might as well be Mars
 Asus2 E 
Might as well be Mars
 Asus2 E 
Might as well be Mars

Oh Well Tabs by The Demics

 The Demics
"Oh Well" tab
Talk's Cheap EP

Intro/Chorus: (2x)

E|-----------------------------------------------------------------------------------------|
B|-----------------------------------------------------------------------------------------|
G|--------------7--7--7--7--9--9--9--9--7--7--7--7--------------------------7--7--7--7-----|
D|--7--7--7--7--7--7--7--7--9--9--9--9--7--7--7--7--7--7--7--7--5--5--5--5--7--7--7--7--7--|
A|--7--7--7--7--5--5--5--5--7--7--7--7--5--5--5--5--7--7--7--7--5--5--5--5--5--5--5--5--7--|
E|--5--5--5--5--------------------------------------5--5--5--5--3--3--3--3--------------5--|


Verse: (3x)

E|--------------------------------------------------|
B|--------------------------------------------------|
G|--------------------------------------------------|
D|--7--7--7--7--7--7--7--7--5--5--5--5--5--5--5--5--|
A|--7--7--7--7--7--7--7--7--5--5--5--5--5--5--5--5--|
E|--5--5--5--5--5--5--5--5--3--3--3--3--3--3--3--3--|

Pre-Chorus:

E|--------------------------------------------------|
B|--------------------------------------------------|
G|--------------7--7--7--7--------------------------|
D|--7--7--7--7--7--7--7--7--5--5--5--5--5--5--5--5--|
A|--7--7--7--7--5--5--5--5--5--5--5--5--5--5--5--5--|
E|--5--5--5--5--------------3--3--3--3--3--3--3--3--|

Lyrics:
Just another sunny day, pretending like there's rain.
Don't seem to get my way, again and again.
Shrugging my shoulders, and im out another like,
Something very apathetic.
Oh well, got my crazy passion, lock me inside of my room, Oh Well
Oh well, got my crazy passion, lock me inside of my room, Oh Well
I just wish to be left to myself
if i was a jar id be content upon the shelf
The only one there that unite us two together seems so unsympathetic
Oh well, got my crazy passion, lock me inside of my room, Oh Well
Oh well, got my crazy passion, lock me inside of my room, Oh Well!

In Order:
Intro (2x)
Verse (3x)
Pre-Chorus
Chorus
Verse (3x)
Pre-Chorus
Chorus

And there you go!

Fare Thee Well Dinks Song chords – Oscar Isaac V7

 There are 2 versions of this song on the Inside Llewyn Davis album.  The first is 
performed by both Marcus Mumford and Oscar Isaac.  The second is performed by 
Isaac alone.  THIS TAB IS FOR THE SECOND VERSION played by Oscar Isaac.  It is 
pretty much spot on, but listen to the record and let me know if you have any corrections.

Standard tuning. No capo.

Fill 1           Fill 2          Fill 3           Em Fill
|----------|     |----------|    |----------|     |-0----------|
|----------|     |--/330----|    |--3/80----|     |-0-0h2p0-0--|
|--4/7p0---|     |--/440----|    |--4/70----|     |-0---------0|
|----------|     |----------|    |----------|     |-2----------|
|--2/5p0---|     |----------|    |----------|     |-2----------|
|----------|     |----------|    |----------|     |-0----------|


Em2   [022003] 


Intro:     G   Em2   G   Em2


          G C G 
If I had wings, like Noah's Dove
               Em C D 
I'd fly up the river, to the one I love
          G Em C D 
Fare the well, oh honey, fare thee well.


G  Em2  (Fill 1)  G  Em2


             G C G 
The woman I loved, is long and tall
               Em C D 
She moves her body, like a cannonball
          G Em C D 
Fare the well, oh honey, fare thee well.


G  Em2  (Fill 2)  G  Em2


           G C G 
Early one morning, drizzling rain
           Em C D 
And in my heart, I felt an aching pain
         G Em C D 
Fare the well, oh honey, fare thee well.


 G   Em2   G   Em2


                  G C G 
Now one of these mornings, it won't be long
                Em C D 
You'll call my name, and I'll be gone
          G Em C D 
Fare the well, oh honey, fare fare thee well.


G  Em2  (Fill 3)  G  Em2


          G C G 
If I had wings, like Noah's Dove
               Em C D 
I'd fly up the river, to the one I love
             G Em (fill)  C D 
Oh fare the well, oh honey, fare fare thee well.


 G   Em2   G   Em2

Ruby Day – Well Be Alright chords

 *Note: While this is a great song, it uses some odd chords, so be sure to check 
out the diagrams below. I made it from this video dft.ba/-RDWellBeAlright. I'm 
fairly sure this is accurate, but feel free to correct me. 

EDIT: A few minor corrections from Ruby herself and I can now guarantee that this 
is correct (unless I made a typo, which I probably did somewhere).

Capo 3, Standard tuning

 G          320033
 C          X32013
 Em7        022033
 Dsus4/F#   2X0233
Cool  D     X54035
 A7sus4     X02233
 D          XX0232

Start with G

 G                                     
I waste my time 
         C Em7 Dsus4/F# 
Singing songs about sailors and things that I regret    
 G 
I Don't know why
       C Em7 Dsus4/F# 
I'm making endless playlists of songs that one day I'll forget
 C                                  Cool  D 
We're obsessed with the past and future
 Em7 Dsus4/F# C 
And occasionally we find
 A7sus4 D 
That it's hard to keep our heads above water
                        G 
But I know we'll be alright 
 G 
`Cause I found love
              C Em7 Dsus4/F# 
It's just as complicated as the songs warned it would be
 G 
Oh it's enough 
             C Em7 Dsus4/F# 
To keep me fixated and my drifting out to sea
        C                CoolD    
With a combination of kisses 
            Em7 Dsus4/F# C 
and simple mel-       o-     dies
 A7sus4 D 
Yeah maybe love will be enough to set me
 G Dsus4/F# Em7 
Fr-   E -         E A7sus4 D G 
And maybe love will be enough to set me free
 Dsus4/F# Em7 C 
        Cause I'm pretty messed up
           G            CoolD
In my head
 Em7 C G              CoolD
I don't do things forward but backwards instead
 Em7 C 
I can sing to a room of strangers
               G Dsus4/F# Em7 
But find it hard to make friends
                   C 
And I'll be reckless I'll be dangerous
             CoolD                      G 
'Cause we're all just stories in the end

Together Well Ring In The New Year chords – Motion City Soundtrack V4

 First chord chart I've put out in a while.
Capo on 1 to match the key of the song (you can move the capo anywhere else to 
work with your voice)

This song sounds real good fingerpicked to these chords in my opinion.
Here's a transcription of the pattern I usually use for the verse (and fingerings for chords). 
This pattern just repeats until you get to the Emin before the chorus.

    G Gmaj7/B 
|--------3--------3----------|--------2--------2----------|
|-----3--------3--------3----|-----3--------3--------3----|
|--0--------0--------0-------|--0--------0--------0-------|
|----------------------------|----------------------------|
|----------------------------|--2-------------------------|
|--3-------------------------|----------------------------|

   Cadd9 G Cadd9 G 
----------------------------|----------------------------||
--------3--------3----------|--------3--------3----------||
-----0--------0--------0----|-----0--------0--------0----||
----------------------------|----------------------------||
--3-------------------------|--3-------------------------||
-----------3--------3-------|-----------3--------3-------||


 G Gmaj7/B 
   This must be it.
                   Cadd9 G Cadd9 G 
   Welcome to the new year.
 G Gmaj7/B 
   The drinks were consumed,
                     Cadd9 G Cadd9 G 
   the plants were destroyed, and the hors d'oeuvres dismantled.
 G Gmaj7/B 
   I'm not smiling
     Cadd9 G Cadd9 G 
   behind this fake veneer.
          G Gmaj7/B 
   I am often interrupted
                   Cadd9 G Cadd9 G 
   or completely ignored,
        Emin Fmaj7 
   but most of all I'm bored.


 G Cadd9 D          
   I'm trying to find out
   Cadd9 G Cadd9 Fmaj7 
   if my words have any meaning.
 G Cadd9 D Cadd9 
   Lackluster and full of contempt
             G Cadd9 Fmaj7 
   when it always ends the same.
    Emin F 
   Why won't she listen to me?


 G Gmaj7/B 
   Why did I come?
                   Cadd9 G Cadd9 G 
   Oh, why did I come here?
 G Gmaj7/B 
   These humans all suck.
                  Cadd9 G Cadd9 G 
   I'd rather be home feeling violent and lonely.
 G Gmaj7/B Cadd9 G Cadd9 G     
   I'm not trying to sound so insincere,
            G Gmaj7/B 
   but the postcard that's taped to the freezer reads:
                   Cadd9 G Cadd9 G 
   "Wish you were here."
          Emin Fmaj7 
   How I wish I could disappear.


 G Cadd9 D    
   I'm trying to find out
   Cadd9 G Cadd9 Fmaj7 
   if my words have any meaning.
 G Cadd9 D Cadd9 
   Lackluster and full of contempt
            G Cadd9 Fmaj7 
   when it always ends the same.

 G Cadd9 D Cadd9  
   Heads up Damage Control,
              G Cadd9 Fmaj7 
   ther

Fare Thee Well Dinks Song chords – Oscar Isaac V6

 Intro:   G Em G Em G C G   
If I had wings like Noah's dove
               Em C D          
I'd fly the river to the one I love
              G Em C D G       
Fare thee well, oh honey, fare thee well.

( Em G )
             G C G     
The woman I love, is long and tall,
               Em C D         
She moves her body like a cannon ball.
             G Em C D G     
Fare thee well, oh honey, fare thee well.

( Em G )
              G C G         
Early one morning, it was drizzling rain
              Em C D        
And in my heart I felt an aching pain.
              G Em C D G 
Fare thee well, oh honey, fare thee well.

( Em G )
              G C G        
Now one of these mornings, it won't be long 
              Em C D                         
You'll call my name, and I'll be gone
              G Em C D G 
Fare thee well, oh honey, fare thee well.

( Em G )
             G C G 
If I had wings, like Nora's dove,
              Em C D                 
I'd fly the river to the one I love, ohh,
             G Em C D G 
Fare thee well, oh honey, fare thee well.

 Em

Fare Thee Well Dinks Song chords – Oscar Isaac V5

 Fare Thee Well (Dink's Song) from Inside Llewyn Davis - Oscar Isaac

CAPO 2

Intro -  F Dm F Dm F Dm F     
If I had wings like Noah’s dove

             Dm Bb C     
I’d fly the river to the one I love

            F Dm Bb C F   
Fare three well, oh honey fare thee well

The woman I love is long and tall
She moves her body like a cannon ball
Fare thee well, oh honey, fare thee well

Early one morning, drizzling rain
And in my heart I felt an an aching pain
Fare thee well, oh honey, fare thee well

Now one of these mornings, it won't be long
You'll call my name and I'll be gone
Fare thee well, oh honey, fare thee well


          F Dm F 
If I had wings, like Noah's dove

                Dm Bb C 
I'd fly up the river to the one I love oh
 
           F Dm Bb C F Dm F Dm 
Fare thee well, oh honey, fare thee well

Fare Thee Well Dinks Song chords – Oscar Isaac V2

 Fare The Well (Dink's Song) by Oscar Isaac & Marcus Mumford
from Joel & Ethan Coen's film Inside Llewyn Davis

This version is meant for strumming.

Capo on 2nd fret

(Intro)
 C F C 
( C/B )  Am G F C F C G C   ( F C )

          C F C 
If I had wings, like Noah's dove
     ( C/B )   Am G F 
I'd fly the river, to the one I love
          C F C G C      ( F C )
Fare the well, my honey, fare thee well

              C F C 
Well I had a man, who was long and tall
      ( C/B )   Am G F 
He moved his body like a cannonball
          C F C G C      ( F C )
Fare the well, my honey, fare thee well

                C F C 
I remember one evening, in the pouring rain
   ( C/B )   Am G F 
And in my heart was an aching pain
          C F C G C      ( F C )
Fare the well, my honey, fare thee well

(Instrumental)
 C F C 
( C/B )  Am G F C F C G C   ( F C )

       C F C 
Muddy river, is muddy and wild
      ( C/B )   Am G F 
Can't give a bloody for my unborn child
          C F C G C      ( F C )
Fare the well, my honey, fare thee well

              C F C 
So show us a bird, flying high above
          ( C/B )   Am G F 
Life ain't worth living without the one you love
          C F C G C      ( F C )
Fare the well, my honey, fare thee well

          C F C G C 
Fare the well, my honey, fare thee well

The Well chords – Praise And Worship

 INTRO
                  G 
Leave it all behind
                  G 
Leave it all behind
                  C 
Leave it all behind
                  G 
Leave it all behind

VERSE 1
                   G 
I have what you need
But you keep on searching
                    Em 
I've done all the work
But you keep on working
                          D 
When you're running on empty 
                          C 
And you can't find the remedy
                       G  
Just come to the well. 

VERSE 2

                           G 
You can spend your whole life
Chasing what's missing
                  Em 
But that empty inside
It just ain't gonna listen
                     D 
When nothing can satisfy
                            C 
And the world leaves you high and dry
                       G 
Just come to the well
 

CHORUS:

                C G 
And all who thirst will thirst no more
                C G Em D 
And all who search will find what their souls long for
 Em Cmaj7            
The world will try, but it can never fill 
                    C D G 
So leave it all behind, and come to the well 

VERSE 3
                    G 
So bring me your heart 
No matter how broken
                   Em 
Just come as you are
When your last prayer is spoken
                  D 
Just rest in my arms a while
                   C 
You'll feel the change my child
                          G 
When you come to the well 

CHORUS: 
               C G 
And all who thirst will thirst no more
                C G Em D 
And all who search will find what their souls long for
 Em Cmaj7            
The world will try, but it can never fill 
                    C D G 
So leave it all behind, and come to the well 

      C G 
Yeah 
                      C G Em D 
Leave it all behind 
 Em Cmaj7 
The world will try, but it can never fill
                       C D Cmaj7 
So leave it all behind 

Verse 4
                       G 
And now that you're full
Of love beyond measure
                   Em 
Your joy's gonna flow
Like a stream in the desert
                C 
Soon all the world will see
                   D 
Living water is found in me
                               G 
‘Cause you’ve come to the well 

CHORUS: 
               C G 
And all who thirst will thirst no more
                C G Em D 
And all who search will find what their souls long for
 Em Cmaj7            
The world will try, but it can never fill 
                    C D G 
So leave it all behind, and come to the well 
                    C D G 
So leave it all behind, and come to the well 

Fare Thee Well Dinks Song chords – Oscar Isaac V4

 G Em  (x2)

            G C G 
If I had wings, like Noah's dove
                Em C D 
I'd fly the river to the one I love.
                G Em 
Fare thee well, oh honey
 C D G 
     Fare thee well

 Em G Em G C G 
The woman I love is long and tall
                        Em C D 
She moves her body like a cannon ball.
                G Em 
Fare thee well, oh honey
 C D G 
     Fare thee well

 Em G Em G C G 
Early one morning, drizzling rain
                 Em C D 
And in my heart, I felt an aching pain
                G Em 
Fare thee well, oh honey
 C D G 
     Fare thee well

 Em G Em G C G 
One of these mornings, it won't be long
                      Em C D 
You'll call my name and I'll be gone
                G Em 
Fare thee well, oh honey
 C D G 
     Fare, fare thee well

 Em G Em G C G 
If I had wings, like Noah's dove
               Em C D 
I'd fly up river to the one I love.
                     G Em 
Oh fare thee well, oh honey
 C D G 
     Fare, fare thee well

 Em G Em

Oh Well Okay chords – Elliott Smith V4

 [ Gm7 ]Here's the [ Gm6 ]silhouette the [ EbMaj7 ]face always turned [ Bb ]away [ Bb/A ]
[ Gm7 ]the bleeding [ Gm6 ]color gone to [ EbMaj7 ]black, dying like a [ Bb ]day [ Bb/A ]
[ G7 ]couldn't figure [ Cm ]out what made you [ Cm/Bb ]so un[ G# ]happy
shook your [ D# ]head to say [ C# ]no no [ Cm ]no
and [ Cm/Bb ]stopped for A [ G# ]spell
and [ G#/G ]stayed that [ F ]way
oh [ G7 ]well, [ Fm ]okay


[Gm7[I got [ Gm6 ]pictures, I just [ EbMaj7 ]don't see it any[ Bb ]more [ Bb/A ]
[ Gm7 ]climbing [ Gm6 ]hour upon [ EbMaj7 ]hour through A total [ Bb ]bore [ Bb/A ]
[ G7 ]with the one I [ Cm ]keep where it [ Cm/Bb ]never [ G# ]fades
in the [ D# ]safety of a [ C# ]pitch black [ Cm ]mind
an [ Cm/Bb ]airless [ G# ]cell that [ G#/G ]blocks the [ F ]day
oh [ G7 ]well, [ Fm ]okay


INSTRUMENTAL---    Fm ---  C# ---  G# ---  G# / G     x2


[ F7 ]If you a get a [ Bbm ]feeling the next [ G# ]time you [ F# ]see me
do me a [ C# ]favor and [ B ]let me [ Bbm ]know
'cos it's [ Bbm/G# ]hard to [ F# ]tell
it's [ C#/F ]hard to [ D# ]say
[ F7 ]oh well, [ D#m ]okay
oh [ F7 ]well, [ D#m ]okay
oh [ F7 ]well, [ D#m ]okay

Fare Thee Well Dinks Song chords – Oscar Isaac V3

 Fare The Well (Dink's Song) from the film Inside Llewyn Davis

This is not the version performed by Marcus Mumford and Oscar Isaac.  This is the 
version performed by Isaac himself.

Fill 1           Fill 2          Fill 3           Em Fill
|----------|     |----------|    |----------|     |-0----------|
|----------|     |--/330----|    |--3/80----|     |-0-0h2p0-0--|
|--4/7p0---|     |--/440----|    |--4/70----|     |-0---------0|
|----------|     |----------|    |----------|     |-2----------|
|--2/5p0---|     |----------|    |----------|     |-2----------|
|----------|     |----------|    |----------|     |-0----------|

Em2   [022003] 


Intro:     G   Em2   G   Em2


          G C G 
If I had wings, like Noah's Dove
               Em C D 
I'd fly up the river, to the one I love
          G Em C D 
Fare the well, oh honey, fare thee well.


G  Em2   <fill 1="">  G  Em2


            GCG
The woman I loved, is long and tall
              EmCD
She moves her body, like a cannonball
         GEmCD
Fare the well, oh honey, fare thee well.


G  Em2  <fill 2="">  G  Em2


          GCG
Early one morning, drizzling rain
          EmCD
And in my heart, I felt an aching pain
        GEmCD
Fare the well, oh honey, fare thee well.


G  Em2  G  Em2


                 GCG
Now one of these mornings, it won't be long
               EmCD
You'll call my name, and I'll be gone
         GEmCD
Fare the well, oh honey, fare fare thee well.


G  Em2  <fill 3="">  G  Em2


         GCG
If I had wings, like Noah's Dove
              EmCD
I'd fly up the river, to the one I love
            GEm<fill>CD
Oh fare the well, oh honey, fare fare thee well.


G  Em2  G  Em2</fill></fill></fill></fill>

Turn It Well Tabs by Up Dharma Down

 TURN IT WELL
UP DHARMA DOWN

STANDARD TUNING

INTRO: A-B-G-G 2X A-B-G 2X

|---------------------------------|  |---------------------------------|
|---------------------------------|  |---------------------------------|
|---------------------------------|2X|---------------------------------|2X
|---------------------------------|  |-----7-7-----7-7-----7-7-----7-7-|
|--7-7-7-7-9-9-9-9-5-5-5-5-5-5-5-5|  |--7-7-7-7-9-9-9-9-5-5-5-5-5-5-5-5|
|--5-5-5-5-7-7-7-7-3-3-3-3-3-3-3-3|  |--5-5-5-5-7-7-7-7-3-3-3-3-3-3-3-3|
             
DO CHORD PATTERN STANZA : A-B-G-G
Downtown I found myself calling in 
my very own white-washed breathing space
Diallin’ the telephone night time 
morning sun out of place in our home
Sooner or later maybe we can suit up 
people on a table, flipping on the
Pages, just a little bit ahead of us, 
cover all my windows

RIFF:
|---------------------------------------|
|------------------------8--------------|  
|-------------7--7h9-6h7--7-6----6------|
|------7---7-9-9--------------7----7----|
|--0-0--0-0-----------------------------|
|---------------------------------------|

DO CHORD PATTERN : A-B-G-G
Do you need you take my youth to get 
the know how to turn it well
Fourthÿ days, fortnights all we have 
every little often so, take my
Hand to help you learn to turn it well, baby, 
maybe we could really turn it well
DO CHORD PATTERN : A-B-G-G

Take them frames off, turn your head, 
say it when my left ear needs it, no
Girl canÿ resist it, don’t you hesitate, 
Sea Eyes baby you can turn it well

Do you need to change my youth to 
get the know how to turn it well
Maybe we can suit up and leave the 
photos home And I’ll walk you through
The woods, crossing fingers

Please rate! Thanks UG

Well Kept Secret chords – Late July

 Chords are the same for each verse and chorus.



 G D 



Verse

 D G 
Glow of the fire
                  Em 

Praying to learn
                        G 

The heat leans on you

                                D 
You swear you won't burn


                             G 

Get mad when I tell you
                         Em 

You'll make mistakes
                    G 

We're in no hurry 
                           Em 

We give what we take

 G 


Chrorus


 Bm G 

Like a well kept secret

                             D 
Somewhere in the dark
                 A 

Until we're alone
                       Bm  

Under an electric arc


                          G 

You first get a feeling
                               D 

You figure out why

                                 G 
Modesty don't come easy
                           Em 

But I love how you try



 G Em G 


Verse


What situations

We come into

The law of gravity breaks too
We know what to do



Wave of despair

The corner of your eye

I'm craving you so badly

There's much you imply

Chorus



Like a well kept secret

Somewhere in the dark

Until we're alone

Under an electric arc



You first get a feeling

You figure out why

Modesty don't come easy

But I love how you try

Verse



We made plans, 

Made love like art

We kept our hands bound

From our dirty hearts

And 

I miss the romance

The things unsaid

When everything fell silent

Did you think we were dead?

Chorus

Like a well kept secret

Somewhere in the dark

Until we're alone

Under an electric arc



You first get a feeling

You figure out why

Modesty don't come easy

But I love how you try


Sleep Well Darling Tabs by Secrets V2

 Song Title: Sleep Well, Darling
Artist: Secrets
Tuning: Drop D

: Chris Bartley
Email: cbartle2



I studied live performances to confirm the accuracy of this tab, it sounds spot on.
Let me know if you notice any problems.

Listen to the song for the rhythm and strumming pattern, it’s pretty straight forward.


Intro: Guitar 1

E |----0--------0----0---------------------------------------------------------------|
B |----7-------10----7---------------------------------------------------------------|
G |----7--------7----6---------REPEAT AS NECESSARY-----------------------------------|
D |----0--------0----0---------------------------------------------------------------|
A |----X--------X----X---------------------------------------------------------------|
D |----5--------9----7---------------------------------------------------------------|



Verse: Guitar 1

        Who said love should be this hard, who said hearts should break apart
E |--0-------------------------------0--------------0-------------------0------------|
B |--7------------------------------10--------------7-------------------7------------|
G |--7-------------------------------7--------------6-------------------7------------|
D |--0-------------------------------0--------------0-------------------0------------|
A |--X-------------------------------X--------------X-------------------X------------|
D |--5-------------------------------9--------------7-------------------5------------|

        I know, maybe I should mend this. Pull out the glue, maybe I can fix this…
E |--0-----------------------------------0-------------------0-----------------------|
B |--7----------------------------------10-------------------7-----------------------|
G |--7-----------------------------------7-------------------6------------REPEAT-----|
D |--0-----------------------------------0-------------------0-----------------------|
A |--X-----------------------------------X-------------------X-----------------------|
D |--5-----------------------------------9-------------------7-----------------------|



Pre-Chorus: Guitar 1

        You’re running away from things that matter, more then you know
E |--0---------------------------0-------------------0-------------------------------|
B |--7---------------------------10------------------7-------------------------------|
G |--7---------------------------7-------------------6------------REPEAT-------------|
D |--0---------------------------0-------------------0-------------------------------|
A |--X---------------------------X-------------------X-------------------------------|
D |--5---------------------------9-------------------7-------------------------------|

        You’re chasing a love that could never love you, as much as I do
E |--0-----------------------------------0------------------0------------------------|
B |--7-----------------------------------10-----------------7------------------------|
G |--7-----------------------------------7------------------6------------REPEAT------|
D |--0-----------------------------------0------------------0------------------------|
A |--X-----------------------------------X------------------X------------------------|
D |--5-----------------------------------9------------------7------------------------|



Chorus: Guitar 1

        My eyes have seen these streets, I’ve walked this road. Every time I look
E |--0--------------------------0-------------------------------0-------------------|
B |--7--------------------------7-------------------------------10------------------|
G |--7--------------------------7-------------------------------7-------------------|
D |--0--------------------------0-------------------------------0-------------------|
A |--X--------------------------X-------------------------------X-------------------|
D |--0--------------------------5-------------------------------9--------