Tag: wish

Wish You Were Here guitar chords by Pink Floyd

[Intro]
Em7  G  Em7  G  Em7  A7sus4  Em7  A7sus4  G       x2

[Verse 1]
C                         D/F#
So, so you think you can tell,
             Am/E                   G
Heaven from Hell, blue skies from pain.
                     D/F#                      C                    Am
Can you tell a green field from a cold steel rail, a smile from a veil,
                      G
Do you think you can tell?

[Verse 2]
                      C                   D/F#
Did they get you to trade your heroes for ghosts,
                Am/E                  G                             D/F#
Hot ashes for trees, hot air for a cool breeze, cold comfort for change,
                  C                        Am                         G
And did you exchange a walk on part in the war for a lead role in a cage?

[Instrumental]
Em7  G  Em7  G  Em7  A7sus4  Em7  A7sus4  G

[Verse 3]
C                               D/F#
How I wish, how I wish you were here.
           Am/E                                    G                D/F#
We're just two lost souls swimming in a fish bowl, year after year,
                                  C
Running over the same old ground. What have we found?
             Am                         G
The same old fears. Wish you were here!

[Instrumental]
Em7  G  Em7  G  Em7  A7sus4  Em7  A7sus4  G

We Wish You A Merry Christmas chords – Melanie

 Melanie - We Wish You A Merry Christmas


CAPO: 2nd Fret


INTRO:  C F D G E F C G C F 
We wish you a merry Christmas
    D G 
We wish you a merry Christmas
    E F  
We wish you a merry Christmas
       C G C 
And a happy New Year


                    F 
We want some figgy pudding
    D G 
We want some figgy pudding
    E F  
We want some figgy pudding
       C G C 
And a cup of good cheer


                      F 
We won't go until we get some
    D G 
We won't go until we get some
    E F  
We won't go until we get some
    C G C 
So bring it right here


           F Dm G 
Once in a year it's not thought amiss
    Am F D7 G 
To visit our neighbours and sing out like this


     C F Dm G 
Our friendship and love, good neighbours, abound
     Am F D7 G 
And peace and good will the whole year around


 C F Dm G 
Pace, salude, friedmere, shalome
     Am F D7 G 
The words mean the same whatever your home


     C F Dm G 
Why can't we have Christmas the whole year around?
     Am F D7 G 
Why can't we have Christmas the whole year around?


   C F 
I wish you a merry Christmas
 D G 
Merry Chris, merry, merry Christmas
    E F  
We wish you a merry Christmas
       C G C 
And a happy New Year


OUTRO:  F D G E F C G C

I Wish You Would chords – Taylor Swift

 I Wish You Would by Taylor Swift
 1989
Track 7
2014


Standard Tuning
Capo on the 5th fret


Chords:

G:      320003 or 320033
Em:     x22000
C:      x32010
D:      xx0232

(To play without a capo replace the chords above by C, Am, F and G)


   Intro:       G 


 Verse:
 G 
 It's 2 am, in your car
 Windows down, they pass my street, the memories start
 You say it's in the past, you drive straight ahead
 You're thinking that I hate you now
 'Cause you still don't know what I never said


 Chorus:
 G 
 I wish you would come back

 Wish I'd never hung up the phone like I did
   Em 
 I wish you knew that I'd never forget you as long as I'd live and I
 C D G 
 Wish you were right here, right now, it's all good, I wish you would


 Verse:
 G 
 It's 2 am, in my room
 Headlights pass, the window pane, I think of you
 We were a crooked love in a street line down
 Em C                    (D)
 Makes you wanna run and hide then it makes you turn right back around


 Chorus:
 G 
 I wish you would come back

 Wish I'd never hung up the phone like I did
   Em 
 I wish you knew that I'd never forget you as long as I'd live and I
 C D G 
 Wish you were right here, right now, it's all good, I wish you would
 G 
 I wish we could go back

 And remember what we were fighting for
   Em 
 I wish you knew that I miss you too much to be mad anymore
 C D G 
 Wish you were right here, right now, it's all good, I wish you would
  G 
 I I I    
 I wish, I wish
  Em 
 I I I
 I wish, I wish 
  C D 
 I I I
 I wish, I wish


 Bridge:
 G 
 You always knew how to push my buttons
 Em 
 You give me everything and nothing
 C D 
 This mad mad love makes you come running
 G 
 Stand back where you stood
                                Em 
 I Wish You Would, I Wish You Would
                                 C 
 I Wish You Would, I Wish You Would
 D 
 I wish, I wish


 Verse:
 G 
 2am here we are
 See your face, hear my voice in the dark
 We were a crooked love
 In a street line down
 Em C                  (D)
 Makes you wanna run and hide but it made us turn right back around


Chorus:
 G 
 I wish you would come back

 Wish I'd never hung up the phone like I did
   Em 
 I wish you knew that I'd never forget you as long as I'd live and I
 C D G 
 Wish you were right here, right now, it's all good, I wish you would
 G 
 I wish you would come back

 Wish I'd never hung up the phone like I did
   Em 
 I wish you know that I never forget you as long as I'm living
 C D G 
 Wish you were right here, right now, it's all good, I wish you would
 G 
 I wish we could go back

 And remember what we were fighting for
   Em 
 I wish you knew that I miss you too much to be mad anymore
 C D G 
 Wish you were right here, right now, it's all good, I wish you would


 Outro:
 G 
 You always knew how to push my buttons
 Em 
 You give me everything and nothing
 C D 
 This mad mad love makes you come running
 G 
 Stand back where you stood
                                Em 
 I Wish You Would, I Wish You Would
                                 C 
 I Wish You Would, I Wish You Would
 D G 
 I wish, I wish
                              G 
 I wish, I wish, I wish you would

Sometimes I Wish Tabs by Dallas Green

 : Dakota Allen

Tuning: Standard (EADGBe) with a capo on the 6th fret.

I couldn’t find a tab for this that sounded exactly right or had the full solo, so I
made it. Listen to the song to find strumming patterns for the chords of each part. And
also in the intro, the 0’s with parenthesis around them are optional. I thought I’d put
them in there because I play it like that and he does a few times as well.


Intro:
e|-------------------0-----------------------0-------------------0----------------------0-|
B|-------------------0-(0)-------------------0-------------------0-(0)------------------0-|
G|------------2-2h4--0--2/4\2p0-(0)----------0------------2-2h4--0--2/4\2p0-(0)---------0-|
D|----0-2-2h4--------4-----------2/4\2p0-2-0-4----0-2-2h4--------4-----------2/4\2p0-02-4-|
A|--2----------------2-----------------------5--2----------------2----------------------5-|
E|-------------------2-----------------------3-------------------2----------------------3-|


Verse:
e|--0--0--|
B|--0--0--|
G|--0--0--|
D|--4--4--|
A|--2--5--|
E|--2--3--|


Bride/Outro:
e|--0--0--|
B|--0--0--|
G|--0--0--|
D|--4--4--|
A|--2--5--|
E|--0--3--|

And I believe he throws the chord below into the bridge/outro every now and again but
that might just be me.
e|----0----|
B|----0----|
G|----0----|
D|----7----|
A|----9----|
E|----0----|



Solo:
e|----------------------------------------------------------------------------------------|
B|----------------------------------------------------------------------------------------|
G|------2----------2---2h4--7p6-----7p6---------2-4/7p6---------2-2--2--2h4-4-4/7p6-------|
D|--2-4---4--2h4-4---4----------7-4-----7-4\2/4---------7-4-2h4--4--4-4-------------7-----|
A|----------------------------------------------------------------------------------------|
E|----------------------------------------------------------------------------------------|

e|----------------------------------------------------------------------------------------|
B|------------------------------7-7--5---------------------3-2----------------------------|
G|-------7-7\6----------7-6------------7p6-----------2-2h4-----2-------2------------------|
D|--7/9-9-9----7-7/9-9------7/9------------7-4\2-2/4--4----------4p2h4---4----------------|
A|----------------------------------------------------------------------------------------|
E|----------------------------------------------------------------------------------------|


| /  slide up
| \  slide down
| h  hammer-on
| p  pull-off
| ~  vibrato
| +  harmonic
| x  Mute note

Last Wish Tabs by Unearth

 : Joshua Garcia (joshuag523@aol.com)

Tabs for the song: Last Wish by Unearth
Please rate and let me know if you have any corrections. Thank you.


Ok so reading this might be a bit tricky, even for those experienced with
capos, so I'll explain it quickly. As stated below, the first 6 strings,
E A D G B E, have a capo on them. The B string doesn't. So the first six
strings will be tabbed according to the capo's poition. In this case, the
capo is on the 2nd fret. So the 2nd fret becomes an open note (0), the 3rd
fret becomes the 1st, 4th becomes the 2nd, and so on. Again, this doesn't
apply to the B string.


Tuning: 7-String Standard (B E A D G B E)


**Capo on 2nd fret on first 6 strings (E A D G B E)**


Intro
Guitar 1:
E||--0~-------0~--------0~------0~---------0~--|--0~-------0~--------0~------0~---------0~--|
B||------6~-\-3~------------6~---------6~------|------6~-\-3~------------6~---------6~------|
G||--------------------------------5~----------|--------------------------------5~----------|
D||--------------------------------------------|--------------------------------------------|
A||--------------------------------------------|--------------------------------------------|
E||--------------------------------------------|--------------------------------------------|
B||--------------------------------------------|--------------------------------------------|


Guitar 2:
E||--------------------------------------------|--------------------------------------------|
B||--------------------------------------------|--------------------------------------------|
G||--------------------------------------------|--------------------------------------------|
D||--------------------------------------------|--------------------------------------------|
A||--------------------------------------------|--------------------------------------------|
E||--------------------------------------------|------------------------------------13\\----|
B||--------------------------------------------|------------------------------------13\\----|



Guitar 1:
E||--0~-------0~--------0~------0~---------0~--|--0~-------0~--------0~------0~---------0~--|
B||------6~-\-3~------------6~---------6~------|------6~-\-3~------------6~---------6~------|
G||--------------------------------5~----------|--------------------------------5~----------|
D||--------------------------------------------|--------------------------------------------|
A||--------------------------------------------|--------------------------------------------|
E||--------------------------------------------|--------------------------------------------|
B||--------------------------------------------|--------------------------------------------|



E||--0~-------0~--------0~------0~---------0~--|--0~-------0~--------0~------0~----0~----0~--|
B||------6~-\-3~------------6~---------6~------|------6~-\-3~------------6~-----6~----6~-----|
G||--------------------------------5~----------|---------------------------------------------|
D||--------------------------------------------|---------------------------------------------|
A||--------------------------------------------|---------------------------------------------|
E||--------------------------------------------|---------------------------------------------|
B||--------------------------------------------|---------------------------------------------|


Guitar 2:
E||--------------------------------------------|---------------------------------------------|
B||--------------------------------------------|---------------------------------------------|
G||--------------------------------------------|---------------------------------------------|
D||--------------------------------------------|---------------------------------------------|
A||--0~----------------------------3~----------|--8~-----------------7~---------10~----------|
E||--0~---------------------

I Wish I Were A Princess chords – Little Peggy March

 I Wish I Were A Princess:Little Peggy March.
#32 on BB Hot 100 on RCA Records in 1963.

INTRO:
 D A D 
I wish I were a princess..I wish I were a princess.
 D A D Am7 
And if I were a princess..I'd make you my prince.

#1.
   E F#m Bm G A 
I wish I were a princess..so beautiful to see.
     D G A 
I'd pass the greatest law in his..tory.
   G Abm A G A D 
A lovely litt..le  law, I hope you'd never break..
 Eb E Abm E D A .. A G F# E 
and it would make you fall in love with me.

#2.
     D Bm G A 
And if I were a princess..the next thing I would do..
    D Bm A 
is plan a celebration in my arms.
            G A D 
And what a happy day, when people hear you say..
    G A D 
my princess, I'm asking for your hand.

BRIDGE:
 D A D 
I wish I were a princess..I wish I were a princess.
 D A D 
I'd have you sit beside me..so handsome, so bold.
 D A D 
I wish I were a princess and you were my prince.
               G F#m A E A Dbm D 
Oh, we'd live happily ever after..as in days of  old.

OUTRO:
 Bb Ab Eb 
I wish I were a princess..I wish I were a princess.
 Eb Ab Eb 
I'd have you sit beside me..so handsome, so bold.
 Bb Ab Eb 
I wish I were a princess..I wish I were a princess..(Fade.)


A sixties smash from Kraziekhat.

Snowdrift Wish chords – Candy Claws

 G C 
Snowdrift I give this xmas wish
It's all that I have 
                  G 
It's all that I have 


( G )
Warm in the dark
                C 
Bright window star
I'm small when I'm with you
             G 
Wish in my heart


( G )                 Em 
I saw it all come down
                            G 
The lights, the lights at night
                  Em 
It calls me all around
                    D 
On high on high inside
 C# Am D Em C G 
I   sing red and green
 Am D Em C G 
sing red and green

bridge:
G|------------|
D|-2-0--------|
A|-----0-2----|
E|---------3--|

 G 
Snowdrift caught up
               C 
Slow in soft wonder
Holiday feelings
              G 
Tree colors love


Storm white outside
             C 
Chorus I'm trying
Small when I see it
             G 
Wish in my heart


( G )                 Em 
I saw it all come down
                            G 
The lights, the lights at night
                  Em 
It calls me all around
                    D 
On high on high inside
 C# Am D Em C G 
I   sing red and green
 Am D Em C G 
sing red and green


solo:
G|--------------------|--------------|---------|-------------|---------------|
D|-2-0----------------|--------------|-----7---|-------------|-----5-7-7-9-5-|
A|-----0-2------2-5-5-|-7/5--7--7/5--|-5-7---7-|-7/5--7--7/5-|-5-7-----------|
E|---------3--3-------|--------------|---------|-------------|---------------|




("I saw it all come down" solo)

e|--------------|---------------|--------------|-------------------|
B|-3-5-/8-5-3-0-|-5-5-------3-3-|-3-5-/8-5-3-0-|-5-5-------3-3--2--|
G|--------------|------4-4------|--------------|------4-4----------|

Sometimes I Wish Tabs by City And Colour

 So I know that there are a few other tabs of this song on the site, but after trying 
them they don't seem
quite right to me. Here is what I think is right, but if I am wrong, please don't 
hesitate to comment below.
Enjoy.

This song is in Standard Tuning [EADGBe] with a capo on the 6th fret, all tabs are in 
relation to the capo.
I wasn't able to figure out a way to show the strumming pattern, so just listen to the 
song to get it right
(it's a fairly simple pattern) I also am not 100% positive on the solo, but I did my 
best and if you play
 it at the right speed it sounds about right; once again, feel free to comment with any 
changes to the solo.

INTRO
e|---------------------0-----------------------0|
B|---------------------0-----------------------0|
G|------------2-2h4----0--2/4-2----------------0|
D|----0-2-2h4--------0-4--------2/4-2-0-0h2--0-4|
A|--2----------------2-2---------------------2-2|
E|-------------------0-0---------------------3-3|

BRIDGE
e|-0---0-|
B|-0---0-|
G|-0---0-|  x4
D|-4---0-|
A|-2---2-|
E|-0---3-|

VERSE
e|-0---0-|
B|-0---0-|
G|-0---0-|  x5
D|-4---0-|
A|-2---2-|
E|-0---3-|

BRIDGE
e|-0---0-|
B|-0---0-|
G|-0---0-|  x2
D|-4---0-|
A|-2---2-|
E|-0---3-|

VERSE
e|-0---0-|
B|-0---0-|
G|-0---0-|  x3
D|-4---0-|
A|-2---2-|
E|-0---3-|

SOLO
e|--------------------------------------------------------|
B|--------------------------------------------------------|
G|--------2-------------2------/7-6-2-4------/7-6-2---2h4-|
D|--2-4-----4~----2-4-4---4~------------4~----------4-----|
A|--------------------------------------------------------|
E|--------------------------------------------------------|

e|------------------------------------------------------------|
B|------------------------------------------------------------|
G|-/7-6-2-4------/7-6-2-4-------------2------2---2---2---2-4~-|
D|----------4~------------4~----4-2-4---4------4---4---4------|
A|------------------------------------------------------------|
E|------------------------------------------------------------|

e|------------------------------------------------|
B|------------------------------------------------|
G|-/7-6-2~--/4---/7-6-7-6-2~--/4---/7---6--2-4~---|
D|------------------------------------------------|
A|------------------------------------------------|
E|------------------------------------------------|

e|----------------------------------------------------|
B|----------------------------------------------------|
G|--11-11--9-9--7-6-2-0-------2------2---2---2---2-4~-|
D|----------------------4-2-4---4------4---4---4------|
A|----------------------------------------------------|
E|----------------------------------------------------|

VERSE
e|-0---0-|
B|-0---0-|
G|-0---0-|  x8
D|-4---0-|
A|-2---2-|
E|-0---3-|


LYRICS
[INTRO x 5 throughout first verse]
If I was a simple man,
Would we still walk hand in hand?
And if I suddenly went blind,
Would you still look in my eyes?
What happens when I grow old?
And all my stories have been told?
Will your heart still race for me?
Or will it march to a new beat?
If I was a simple man
[BRIDGE x 4]
[VERSE x 5]If I was a simple man,
I'd own no home, I'd own no land
Would you still stand by my side?
And would our flame still burn so bright?
Sometimes I wonder why,
I'm so full of these endless rhymes
About the way I feel inside
I wish I could just get it right
[BRIDGE x 2]
[VERSE x 3]If I was a simple man
And I could make you understand
There'd be no reason to think twice
You'd be my sun; you'd be my light
[SOLO]If I was a simple man...
If I was a simple man...
[VERSE x 8]Sometimes I wonder why
I'm so full of these endless rhymes
About the way I feel inside
I wish...
Sometimes...Sometimes...
Sometimes...Sometimes...
Sometimes...Sometimes...
Sometimes...Sometimes...
Sometimes...Sometimes...
Sometimes...Sometimes...

Wish The Wind Would Blow Me chords – Bob Schneider

 (Intro)  C ,  E ,  F ,  G  2x

   C E F G 
I wish I was a baby bear sleeping in the brown
 C E F G 
winter grass in April, while the sun was going down
 C E F G 
I wish my shoes were empty and I was still in bed
 F C E Am 
with you there beside me with your dreams inside your head
   F C E Am 
I wish the world would do what I want it to
       F C G C ,  E ,  F ,  G ,  C ,  E ,  F ,  G 
and I wish the wind would blow me, blow me back to you

        C E F G 
Well I wish your mom was ugly and your dad was ugly too
 C E F G 
Then they couldn’t have a girl to be as beautiful as you
 C E F G 
I wish I was a tightrope walker with legs made out of gold
 F C E Am 
I’d hold you in my golden legs and never let you go
   F C E Am 
I wish the world would do what I want it to
       F C G C ,  E ,  F ,  G ,  C ,  E ,  F ,  G 
and I wish the wind would blow me, blow me back to you


        C E F G 
Well I wish I could see Jesus shining in the sky
              C E F G 
and he could let me know that everything will be all right
   C E F G 
I wish I knew that God’s love was all I’d ever need
      F C E Am 
I’d cut my candyteeth for fun and let the good times bleed
      F C E Am 
Oh I wish the world would do what I want it to
  F C E Am 
Wish the world would do what I want it to
       F C G C 
and I wish the wind would blow me, blow me back to you

My Wish chords – Rascal Flatts V4

 /first fret,  gll

 Asus2 
I hope that the days come easy and the moments pass slow,
 E 
And each road leads you where you want to go,
 Asus2 
And if you're faced with a choice, and you have to choose,
 E 
I hope you choose the one that means the most to you.
 Asus2 
And if one door opens to another door closed,
 E 
I hope you keep on walkin' till you find the window,
 C#m7 Asus2 
If it's cold outside,   
 Bsus4 
show the world the warmth of your smile.

     C#m7 Asus2 
But more than anything, 
                 Bsus4    
yeah more than anything,
 E                  F#m2 
My wish, for you, 
             Asus2 Bsus4   
is that this life becomes all that you want it to,
          E       
Your dreams stay big, 
              F#m2
and your worries stay small,
       Asus2 Bsus4 
You never need to carry more than you can hold,
                 C#m7 Asus2 
And while you're out there getting where you're getting to,
                  E Bsus4 
I hope you know somebody loves you,
             C#m7 E 
and wants the same things too,
          Bsus4 Asus2 
Yeah  this,             
          E 
is my wish.

 Asus2 
I hope you never look back, but ya never forget,
 E 
All the ones who love you, in the place you left,
 Asus2 
I hope you always forgive, and you never regret,
 E 
And you help somebody every chance you get,
 Asus2 
Oh, you find God's grace, in every mistake,
 E 
And you always give more than you take.

     C#m7 Asus2 
But more than anything, 
                 Bsus4    
yeah more than anything,
 E                  F#m2 
My wish, for you, 
             Asus2 Bsus4   
is that this life becomes all that you want it to,
          E       
Your dreams stay big, 
              F#m2
and your worries stay small,
       Asus2 Bsus4 
You never need to carry more than you can hold,
                 C#m7 Asus2 
And while you're out there getting where you're getting to,
                  E Bsus4 
I hope you know somebody loves you,
             C#m7 E 
and wants the same things too,
          Bsus4 Asus2 
Yeah  this,             
          E 
is my wish.

 E        F#m2                  Asus2 Bsus4 
My wish, for you, is that this life becomes all that you want it to,
 E                                   F#m2  
Your dreams stay big, and your worries stay small,
     Asus2 Bsus4 
You never need to carry more than you can hold,
                 C#m7 Asus2 
And while you're out there getting where you're getting to,
             E Bsus4 
I hope you know somebody loves you,
                C#m7 E 
and wants the same things too,
         Bsus4 Asus2 
Yeah, this,   
          E 
is my wish.

We Wish You Well chords – Whitesnake

 A C#m 
i`m sad to say its time to go 
 D E A 
until we meet again along the road 
 A F#m A 
remember this,on your journey home 
 D E A 
when you hear the thunder roar your not alone 

 A E F#m F#m 
we wish you well,we wish you well 
 D E A   
in times of trouble,let your heart be strong 
 A E F#m F#m 
we wish you well,we wish you well 
 D E      NC       Bm A   
until we meet again,we wish you well. 

Wish It Would Break chords – Dierks Bentley

 Deirks Bentley - Wish it would break

Intro -  C  -  G  -  C  -  G  -  C  

(verse 1)
          G 
That ole picture frame keeps hangin round,
         C 
I ain't ready yet to take it down,
        G 
Every now and then I'll slam the door,
 C 
Shake it loose and she'll hit the floor,


(bridge)
     Em D C 
But I can't throw a good thing away,
                   G 
I wish it would break,


(verse 2)
        G 
And I swear my trucks got a haunted radio,
      C 
Cause I hear you in every song,
       G 
But I know what the silence makes me do,
 C 
So I give those buttons more abuse,


(bridge)
   Em D C 
I wonder how much punchin it can take,
                    G 
I wish it would break,


(chorus)
            C G D 
There could move on, right on down the line,
            C G D 
Her I don't See you , need you, in my life,
             Em 
But you're wrapped around me,
       D C 
Your memories bound me, like a chain,
                    G 
I wish it would break,


(verse 3)
          G 
This ole hearts got a mind of it's own,
      C 
IT's decided not to let you go,
          G 
And even though your love's no longer here,
  C 
It won't let me shed one tear,

(bridge)
        Em D C 
Cause it's still holdin on till yesterday,
                    G 
I wish it would break,


(chorus)
            C G D 
There could move on, right on down the line,
            C G D 
Her I don't See you , need you, in my life,
             Em 
But you're wrapped around me,
       D C 
Your memories bound me, like a chain,
                    G   -  C                
I wish it would break,    
                    G   -  C 
I wish it would break,
                       G   -  C 
yea I wish it would break,
                 G 
Go on and break.

Wish You Well chords – Chris Norman

 *********************************************
Tabs and chords - Privateer3000
any Questions at privateer3000@googlemail.com
*********************************************
Title:Wish you well
Artist: Chris Norman
 There and Back
Tuning: Standard

Notice: Play by picking Chords down and up

1st Verse

  C F 
 WISH YOU WELL, WISH YOU WELL
  F G 
 AS YOU GO ON YOUR WAY
  G 
 AND I HOPE YOUR NEW LIFE
             C 
 BE ALL YOU WANTED
 
 
  C F 
 AND WHATEVER YOU DO
  F G 
 MAY YOUR GOD GO WITH YOU
  G 
 WHEN YOU LOOK FOR THE TRUTH
                C 
 I HOPE YOU’LL FIND IT
 
 
Chorus

  C 
 ‘COS I COULD NEVER BE
              F G 
 THE WAY YOU WANTED
  G 
 THOUGH I TRIED EVERYTHING
           C 
 I ALWAYS KNEW IT
  C 
 NO I COULD NEVER BE THE WAY
      F G 
 YOU WANTED ME TO BE
  G 
 WE WERE CHASING A DREAM
  G 
 BUT I JUST COULDN’T SEEM
              F 
 TO MAKE YOU LOVE ME
            C  
 THE WAY I LOVE YOU

2nd Verse

 AND I WISH YOU NEVER FORGET
 EVERY DAY SINCE WE MET
 AND A PIECE OF YOUR HEART
 WILL STILL REMEMBER

 SO JUST FOLLOW THE SUN
 MAY IT BRIGHTEN YOUR WAY
 TO A FUTURE OF HOPE
 AND UNDERSTANDING

Chorus

 AND I WON’T SAY A WORD
 TO MAKE YOU STAY LOVE
 COS’ I CAN’T SAY ANYTHING
 IF YOU DON’T KNOW IT
 NO I WON’T SAY A WORD
‘COS IT’S TOO LATE
 FOR THAT FOR ME
 NOW IT’S OVER AND DONE
 I WAS NEVER THE ONE
 TO MAKE YOU NEED ME
 THE WAY I NEED YOU

 AND I COULD NEVER STA ND
 TO SEE YOU CRY LOVE
 I’LL ALWAYS BE HERE FOR YOU
 SO PLEASE DON’T FEEL BAD
 NO I WOULD NEVER WISH TO SEE
 YOU FALLI NG ON YOUR KNEES
 AND IT’S RIGHT YOU SHOULD LEAVE
 AND I FINALLY BELIEVE
 YOU NEVER LOVE D ME THE WAY
 I LOVED YOU

 WISH YOU WELL, WISH YOU WELL
 AS YOU GO ON YOUR WAY
 AND I HOPE YOUR NEW LIFE
 BE ALL YOU WANTED

Wish You Well chords – A Fine Frenzy

 Intro:  G G 
You're a million miles away this Christmas
 G                                 
You're a million miles away from home
            C G  
But if you feel like coming back, coming back, let me know

 G 
I haven't heard you call me sister
 G 
I haven't heard it said in years
            C G 
But it's a funny thing now it's the only thing I want to hear
     Am D 
For I don't know you anymore

        G 
I said ring-a-ling-a-ling-a-ling
        Em Dm C 
Ring a sleigh bell,ring a doorbell
                    G 
I want to wish you well

 G                                                          
Our family was never perfect, you did your best to tear it down
      C G 
Well everybody made mistakes, I wish we could fix'em now
 G 
I understand that you are angry, well, maybe I am angry too
          C G 
Cause I still love you brother, but I don't know what to make of you
 Am D 
When I don't know you anymore

        G 
I said ring-a-ling-a-ling-a-ling
        Em Dm C 
Ring a sleigh bell,ring a doorbell
                    G 
I want to wish you well

        G 
I said ring-a-ling-a-ling-a-ling
       Em Dm C 
Ring a sleigh bell,ring a doorbell
                    G Em Dm C G Em Dm C G 
I want to wish you well

     Am D 
Now do you sit by your plastic tree
     G Em 
And tell your friends you've no family
          C 
It's not over, over, over
          D G 
It's not over, over, over

        G 
I said ring-a-ling-a-ling-a-ling
        Em Dm C 
Ring a sleigh bell, ring a doorbell
                    G 
I want to wish you well
        G 
I said ring-a-ling-a-ling-a-ling
        Em Dm C 
Ring a sleigh bell, ring a doorbell
                    G 
I want to wish you well
                    G 
I want to wish you well
                    G 
I want to wish you well
                    G 
I want to wish you well

We Wish You A Merry Christmas chords – Misc Christmas V6

  We  Wish  You  A  Merry  Christmas

 
     G C A7 D7 
 We wish you a Merry Christmas, we wish you a Merry Christmas.

     B7 Em C D7 G 
 We wish you a Merry Christmas and a Happy New Year!


  G D A7 D7 
 Good tidings we bring to you and your kin.

     B7 C Am D7 G 
 We wish you a Merry Christmas and a Happy New Year!


      G C A7 D7 
 Now bring us some figgy pudding, please bring us some figgy pudding.

         B7 Em C D7 G 
 Please bring us some figgy pudding and a cup of good cheer!


  G D A7 D7 
 Good tidings we bring to you and your kin.

     B7 C Am D7 G 
 We wish you a Merry Christmas and a Happy New Year!


     G C A7 D7 
 We won't go until we get some, we wont go until we get some.

     B7 Em C D G 
 We won't go until we get some, please bring it out here.


  G D A7 D7 
 Good tidings we bring to you and your kin.

     B7 C Am D7 G 
 We wish you a Merry Christmas and a Happy New Year!


     G C A7 D7 
 We wish you a Merry Christmas, we wish you a Merry Christmas.

     B7 Em C D7 G 
 We wish you a Merry Christmas and a Happy New Year!


 Enjoy !

I Wish Everyday Could Be Like Christmas chords – Bon Jovi V2

 I Wish Everyday Could Be Like Christmas - Bon Jovi
Transcription by twoputt@mac.com (corrections are always welcome)
- Dec 8, 2013 - I was asked to tab the intro riff, so here it is!

Intro Riff:
     A E Bm7 E D E 
e|--------------------------2---2-------------|
B|-10-----9-----7-----5-----3----3------------|
G|---9-----9-----7-----4----2-----2---1-------|  (2x)
D|----11----9-----9-----6-----0-------2-------|
A|------------------------------------2-------|
E|--------------------------------------------|

      A Asus4 
e|------------------------|
B|---2---2------3---------|
G|---2----2-----2---------|  (2x)
D|---2-----2----2---------|
A|------0-----------------|
E|------------------------|


Intro Chords:  (Walk down from 9th fret)
   A E Bm7 E D E    (2x)
   A Asus4   (2x)


Verse One:
                 A Asus4 A Asus4 
What time is it baby?        Is it that time again?
                   A D 
When snow will be falling, friends will be calling 
     E D 
You know it's time when
             A Asus4 A Asus4 
There'll be carolers singing   Silent Night
                  A D 
I love when they sing, the feeling it brings 
                E D 
It's warm as a fire is bright 

Pre-Chorus
 Bm7 
Soon there'll be toys for the good girls and boys 
     D A 
And reindeer are heading our way 
          Bm7 
Yes, and Santa will come down the chimney above 
         D E 
There's one thing I wanted to say 

Chorus: (Use intro riff)
        A E Bm7 E D E 
I wish everyday could be   like Christmas  
        A E Bm7 E D E 
And if I could have one wish come true 
        A Asus4 A Asus4 
I wish everyday could be full of peace and harmony 
        A E Bm7 E D E A Asus4 
I wish everyday could be   like Christmas  ...  I do...


Verse Two:
         A Asus4 A Asus4 
I saw a child sit       with old Mr. Clause 
                   A D 
Looked him in the eye and he asked old Santa
               E D 
what peace on Earth was  
                      A Asus4 A Asus4 
Now the old man grew cautious        on how he would say 
             A D 
That is the greatest gift, one you can give
 E D 
every day 

Chorus: (Use intro riff)
        A E Bm7 E D E 
I wish everyday could be   like Christmas  
        A E Bm7 E D E 
And if I could have one wish come true 
        A Asus4 A Asus4 
I wish everyday could be full of peace and harmony 
        A E Bm7 E D E A Asus4 
I wish everyday could be   like Christmas  ...  I do...


Bridge:
         Bm 
Now the mistle-toe and the house a-glow 
         D A 
All the world seems at peac