Tag: within

Still Within The Sound Of My Voice chords – Glen Campbell

 Still within the sound of my voice
Glen Campbell
written by Jimmy Webb
1987 album Still Within The Sound Of My Voice

Capo 1

Intro:  E A E A E A E A   

Verse 1

 E A E A E A 
WHERE HAVE YOU GONE, MY DARLING ONE.  ARE YOU ON YOUR OWN,
         B A 
ARE YOU HAVING FUN?
 B C#m7 D A 
IS THERE SOME ONE TO HOLD, WHEN YOU NEED IT BAD?
 B C#m7 F#7sus4 F#7 A 
IS IT UNCONTROLED, LIKE THE LOVE WE HAD?

Verse 2

 E A E A 
DOES A DAY GO BY, LIKE A MEMORY ?
        E A B A 
DO YOU EVER TRY TO REMEMBER ME?
       B C#m7 D A 
IN AN AUTOMOBILE OR A CROWDED BAR.
        B C#m7 F#7sus4 F#7 C D  
WELL I HOPE YOU’RE ALRIGHT, WHEREVER YOU ARE.

Chorus 1

               G C 
AND IF YOU’RE STILL WITHIN THE SOUND OF MY VOICE,
      G Em D F C 
OVER SOME RADIO.  I JUST WANT YOU TO KNOW
          Em D E 
YOU WERE ALWAYS MY ONLY CHOICE.
     Am Dm7 G C 
AND WHEREVER YOU GO ,  THAT I STILL LOVE YOU SO
           F C 
IF YOU’RE STILL WITHIN THE SOUND OF MY VOICE.

Verse 3

 E A E A 
IN THE DEAD OF NIGHT,   DO YOU HEAR ME CALL?
            E A B A 
SOMETHINGS NOT QUITE RIGHT ,  NO ONE’S THERE AT ALL.
         B C#m7 D A 
DID YOU MAKE A MISTAKE?  WAS IT IN YOUR HEAD?
           B C#m7 F#7sus4 F#7 C D 
OR WAS IT REALLY ME TALKING , TO YOUR HEART   INSTEAD?


Chorus 2

               G C 
AND IF YOU’RE STILL WITHIN THE SOUND OF MY VOICE
               G D 
WHY DON’T YOU LET ME KNOW?
        F C G D E 
I JUST CAN’T LET YOU GO CAUSE IT ALWAYS MADE ME REJOICE.
         Am F G C 
JUST TO HAVE YOU SO NEAR, THERE’S A PLACE FOR YOU HERE
           F C 
IF YOU’RE STILL WITHIN THE SOUND OF MY VOICE.

Bridge

      C G 
I AM CALLING LIKE THE ECHO OF A PASSING TRAIN THAT CRIES,
     C G 
ONE LAST TIME BEFORE IT FADES INTO THE DISTANT HILLS AND DIES.
      F G 
I AM SENDING OUT A MESSAGE, LIKE A SHIP OUT ON THE SEA
    F E 
IN DISTRESS BUT ONLY YOU CAN SEND A LIFELINE OUT TO ME.

Chorus 3

         A D                               
ARE YOU STILL WITHIN THE SOUND OF MY VOICE?
               F#m E G D            
WHY DON’T YOU LET ME KNOW?   I JUST CAN’T LET YOU GO.
         F#m E F# 
IF IT’S WRONG THEN I HAVE NO CHOICE.
        Bm G A D 
BUT TO LOVE YOU UNTIL, I NO LONGER HAVE THE WILL,
           G D G D G D 
IF YOU’RE STILL WITHIN THE SOUND OF MY VOICE. 
 
Outro

                                                               
 D Ab7sus4 
I AM CALLING LIKE THE ECHO OF A PASSING TRAIN THAT CRIES,
 D A

Whole World Is Watching chords – Within Temptation

 Capo on the 1st fret

Intro:  Am C G Dm Am 
You live your life.

     C G Dm 
You go day by day like nothing can go wrong. 

       Am C 
Those colors are made, they're changing the game. 

     G Dm 
You learn to play it hard. 

     Am C 
And I know you wish for more, 

     G Dm 
and I know you try. 

     Am C 
And I hope you realize, 

     G Dm 
you know the time is right. 

                    F Dm 
The whole world is watching when you rise. 

                    Am G 
The whole world is beating for you right now.
 
                    F Dm 
Your whole life is flashing before your eyes.
 
                  Am G 
It's all in this moment that changes all. 

 F 
What are you waiting for? 

 Dm 
What are you fighting for? 

       Am G 
Cause time's always slipping away. 

                    F Dm 
The whole world is watching. 

                          Am 
Yeah, the whole world is watching. 

                G 
You're in your right. 


You build your walls then break them away 
cause that is what it takes. 
You saved yourself. 
You found who you are, 
and that never goes away. 

And I know you wish for more, 
and I know you try. 
And I hope you realize, 
you know the time is right. 


The whole world is watching when you rise. 
The whole world is beating for you right now. 
Your whole life is flashing before your eyes. 
It's all in this moment that changes all. 

What are you waiting for? 
What are you fighting for? 
Cause time's always slipping away. 
The whole world is watching. 
Yeah, the whole world is watching. You're in your right. 

            F Dm Am G 
Your sacrifice comes to your mind, but nothing is wasted. You made it now. 

           F Dm Am G 
You rise again, reaching out. He stands as he's taking his claim to prize. 

The whole world is watching. 
Yeah, the whole world is watching. 
You're in your right. 

What are you waiting for? 
What are you fighting for? 
Cause time's always slipping away. 
The whole world is watching. 
Yeah, the whole world is watching. 
You're in your right.

And We Run Tabs by Within Temptation

 Within Temptation-And We Run (Guitar Tab) Drop-Bb-F-Bb-Eb-G-C-F tuning

Intro
F------------------------------------------------------------------\
C------------------------------------------------------------------ \
G------------------------------------------------------------------  \
Eb-----------------------------------------------------------------   \
Bb-----------------------------------------------------------------    \
F------------------------------------------------------------------     \
Bb--7-7-7-7-7-7-7-7-7-7-7-7-7-7-7-3-3-3-3-3-3-3-3-3-3-3-3-3-3-3-3--      \
PM  . . . . . . . . . . . . . . . . . . . . . . . . . . . . . . .
                                                                          X2

F------------------------------------------------------------------      /
C------------------------------------------------------------------     /
G------------------------------------------------------------------    /
Eb-----------------------------------------------------------------   /
Bb-----------------------------------------------------------------  /
F---3-3-3-3-3-3-3-3-3-3-3-3-3-3-3---------------------------------- /
Bb--------------------------------2-2-2-2-2-2-2-2-2-2-2-2-2-2-2-2--/
PM  . . . . . . . . . . . . . . . . . . . . . . . . . . . . . . .  

F----------------------------------------------------------------------|
C----------------------------------------------------------------------|
G----------------------------------------------------------------------|
Eb---------------------------------------------------------------------|
Bb---------------------------------------------------------------------|
F----------------------------------------------------------------------|
Bb--3-3-3-3-3-3-3-3-3-3-3-3-/-5-5-5-/-7-7-7-7-7-7-7-7-7-7-7-7-\-5-5-5--|

F--------------------------------------------|
C--------------------------------------------|
G--------------------------------------------|
Eb-------------------------------------------|
Bb--------------------------------------2~~~~|
F---------------------------------------2~~~~|
Bb--3-3-3-3-3-3-3-0-0-0-0-2-2-2-2-2-2-2-2~~~~|

Pauze.

Chorus (Starts At. 1:28 Min)
F------------------------------------------------------------------------------|
C------------------------------------------------------------------------------|
G------------------------------------------------------------------------------|
Eb-----------------------------------------------------------------------------|
Bb--------------7-7-7-7-7-7-7-7-7-7-7-7-7-7-7-3-3-3-3-3-3-3-3-3-3-3-3-3-3-3-3--|
F---------------7-7-7-7-7-7-7-7-7-7-7-7-7-7-7-3-3-3-3-3-3-3-3-3-3-3-3-3-3-3-3--|
Bb--7-/-12-\-3--7-7-7-7-7-7-7-7-7-7-7-7-7-7-7-3-3-3-3-3-3-3-3-3-3-3-3-3-3-3-3--|

F-------------------------------------------------------------------|
C-------------------------------------------------------------------|
G-------------------------------------------------------------------|
Eb------------------------------------------------------------------|
Bb--5-5-5-5-5-5-5-5-5-5-5-5-5-5-5-2-2-2-2-2-2-2-2-2-2-2-2-----------|
F---3-3-3-3-3-3-3-3-3-3-3-3-3-3-3-2-2-2-2-2-2-2-2-2-2-2-2--5-3-2----|
Bb--------------------------------2-2-2-2-2-2-2-2-2-2-2-2--------2--|

F------------------------------------------------------------------------------|
C------------------------------------------------------------------------------|
G------------------------------------------------------------------------------|
Eb-----------------------------------------------------------------------------|
Bb--------------7-7-7-7-7-7-7-7-7-7-7-7-7-7-7-3-3-3-3-3-3-3-3-3-3-3-3-3-3-3-3--|
F---------------7-7-7-7-7-7-7-7-7-7-7-7-7-7-7-3-3-3-3-3-3-3-3-3-3-3-3-3-3-3-3--|
Bb--7-/-12-\-3--7-7-7-7-7-7-7-7-7-7-7-7-7-7-7-3-3-3-3-3-3-3-3-3-3-3-3-3-3-3-3--|

F------------------------------------------------------------------|
C---------------------------------------------------

The Devil Within chords – Digital Daggers

  — sorry if it isn't perfect but I couldn't find the chords to this 
song so I tried to figure it out.



             Am 
I will keep quiet

You won’t even know I’m here
                     E 
You won’t suspect a thing

You won’t see me in the mirror
                       F 
But I crept into your heart
                        E 
You can’t make me disappear
       Am 
Til I make you

                  Am 
I made myself at home

In the cobwebs and the lies
                       E 
I’m learning all your tricks
                   
I can hurt you from inside
                 F 
I made myself a promise
                        E 
You would never see me cry
       Am 
Til I make you

                        Am 
You’ll never know what hit you
              C 
Won’t see me closing in
           Em 
I’m gonna make you suffer
      F 
This hell you put me in
                     Dm 
I’m underneath your skin
               E 
The devil within
 Am 
You’ll never know what hit you

           Am 
I will be here

When you think you’re all alone
                     E 
Seeping through the cracks

I’m the poison in your bones
                 F 
My love is your disease
                        E 
I won't let it set you free
       Am 
Til I break you

                        Am 
You’ll never know what hit you
              C 
Won’t see me closing in
           Em 
I’m gonna make you suffer
      F 
This hell you put me in
                     Dm 
I’m underneath your skin
               E 
The devil within
 Am 
You’ll never know what hit you

                   F E 
I tried to be the lover to your nightmare
 Am 
Look what you made of me
                 F E 
Now I’m a heavy burden that you can’t bear
 Am 
Look what you made of me
 Am 
Look what you made of me
 Am 
I’ll make you see

                        Am 
You'll never know what hit you
              C 
Won't see me closing in
           Em 
I'm gonna make you suffer
      F 
This hell you put me in
                     Dm 
I’m underneath your skin
               E 
The devil within
 Am 
You’ll never know what hit you

               E 
The devil within
 Am 
You’ll never know what hit you

Whats Within My Heart Tabs by Uriah Heep

                                            Artist - Uriah Heep
                                         *********************
                                     Song - What's Within My Heart 
                                    *******************************
                                        Album - Look At Yourself 
                                       **************************
                                           - Ayreon77
                                         **********************



INTRO
 D
[-------2---------------3---------------3---------------2---------|
[-----3---3-----------3---3-----------3---3-----------3---3-------|
[---2-------2---2---2-------2---2---2-------2---2---2-------2---2-|
[-0-----------0---0-----------0---0-----------0---0-----------0---|
[-----------------------------------------------------------------|
[-----------------------------------------------------------------|X2


00:22
 D
[-------2-----------------3-----------------3-----------------2----------|
[-----3---3-------------3---3-------------3---3-------------3---3--------|
[---2-------2----2----2-------2----2----2-------2----2----2-------2----2-|
[-0-----------0-----0-----------0-----0-----------0-----0-----------0----|
[------------------------------------------------------------------------|
[------------------------------------------------------------------------|
|                                                                        |
|SOLO                                                                    |
[----------------------b-------------------------------------------------|
[----------------3-----5----5----3-------h-------------------------------|
[------------2--------------------------2-4---2-----------h--------------|
[--0----4------------------------------------------------2-4---0---------|
[------------------------------------------------------------------------|
[------------------------------------------------------------------------|


------------------------------------------------------------------------ 
VERSE
******
1 - Will I never see again, The smiling faces of my friends
2 - I believe the sun will shine, And I know that given time 
3 - On my grave lay one black rose, Do this for me but don't suppose
 D
[-------2-----------------2-----------------2-----------------3----------|
[-----3---3-------------3---3-------------3---3-------------3---3--------|
[---2-------2----2----2-------2----2----2-------2----2----2-------2----2-|
[-0-----------0-----0-----------0-----0-----------0-----0-----------0----|
[------------------------------------------------------------------------|
[------------------------------------------------------------------------|
 
1 - Could it be they've gone completely
2 - The leaves will blow tumble 
3 - Because I'm gone, my soul is dead
 G
[--------3------------------3-----------|
[------3---3--------------3---3---------|
[----0-------0-----0----0-------0-----0-|
[---------------0------------------0----|
[---------------------------------------|
[-3------------------3------------------|
 
1 - And though thoughts will linger Sweetly in my Heart
2 - And cry upon the autumn stone below 
3 - For I'll be here in spirit, And our love once more  
 Eb                                   D                      p
[-------3-----------------3-----------------2---------------3-2-------|
[-----3---3-------------3---3-------------3---3-----------3-----3-----|
[---3-------3----3----3-------3----3----2-------2---2---2---------2---|
[-5-----------5-----5------------5----0-----------0---0-------------0-|
[---------------------------------------------------------------------|
[---------------------------------------------------------------------|


------------------------------------------------------------------------
CHORUS
*******
1 - May I hear once more      The bird calls my name
2 - And my he

Beast Within chords – In This Moment

 Artist: In This Moment
 Blood (2012)
Label: Century Media Records

 Bm 
I don’t know how I got here
 G F# 
But we cannot get out
 Bm 
I’m surrounded by strangers
         G F# 
As the music starts to pound
           Bm 
I see the bodies slowly swayin’
 G F# 
Movin’ side to side
             Bm 
I feel the animal is rising
       G F# 
As I slowly come alive
    Bm 
So everybody starts to move now
          G F# 
I wanna see you all give way
          Bm  
I wanna tear this place apart tonight
               G F# 
And have you thank me for my rage
 Bm 
Tell me what you came for
       G F# 
Can I give you just a taste?
          Em 
I wanna see you lose your fucking minds
      F# 
And rip apart this place
 Bm 
Let me see you move your bodies
 Bm 
Let me see you move your bodies
               Bm 
I’ll tear you apart
                    G 
I’ll feed off your heart
                    D A 
I wanna see your bodies grinding just for me
      F# Bm D 
I’m just what you need, the perfect disease
                   A A F# 
Don’t you wanna turn the beauty into the beast?

 Bm 
Endorphins start to swell now
        G F# 
As I step up to my throne
 Bm 
I feel the monster caged inside of me
 G F# 
Screaming through my bones
 Bm 
I wanna see you start to sweat now
          G F# 
I wanna see you lose your minds
 Bm 
I wanna feel you all from deep within
 G F# 
Swayin’ back and forth all night

 Bm 
Let me see you move your bodies
 Bm 
Let me see you move your bodies
               Bm 
I’ll tear you apart
                    G 
I’ll feed off your heart
                    D A 
I wanna see your bodies grinding just for me
      F# Bm D 
I’m just what you need, the perfect disease
                   A A F# 
Don’t you wanna turn the beauty into the beast?

           Bm 
I see the bodies slowly swayin’
 G F# 
Movin’ side to side
             Bm G F# 
I feel the animal is rising

 Bm 
Let me see you move your bodies
 Bm 
Let me see you move your bodies
               Bm 
I’ll tear you apart
                    G 
I’ll feed off your heart
                    D A 
I wanna see your bodies grinding just for me
      F# Bm D 
I’m just what you need, the perfect disease
                   A A     
Don’t you wanna turn the beauty into the beast?
 F# 
Into the beast!

 Bm F# Bm

The Evil Within Tabs by Twelve Gates

 e|----------------------------------------------------|
B|----------------------------------------------------|
G|----------------------------------------------------|
D|-5-4-----5-4-----5-4-5-4-5-4-5-4-5-4-5--------------|
A|-7-5-----7-5-----7-5-7-5-7-5-7-5-7-5-7--------------|
E|-----0-0-----0-0-----------------------0-0----------|

e|-----------------------------------------------------------|
B|-----------------------------------------------------------|
G|-----------------------------------------------------------|
D|-5-----------4-----------2-----------1-----2---4-4---------|
A|-7-----------5-----------3-----------2-----3---5-5---------|
E|---0-0-0-0-0---0-0-0-0-0---0-0-0-0-0---0-0---0-----0-0-----|

e|----------------------------------------------------|
B|----------------------------------------------------|
G|----------------------------------------------------|
D|-9-----9--7-----7--5-----5--7/4-------4-------------|
A|-7-7-7-7--5-5-5-5--3-3-3-3--5/2-2-2-2-2-------------|
E|----------------------------------------------------|
G|----------------------------------------------------|

e|---------------------------------------------------------|
B|---------------------------------------------------------|
G|---------------------------------------------------------|
D|-9-----9--7-----7--5-----5--7/4--------------------------|
A|-7-7-7-7--5-5-5-5--3-3-3-3--5/2-2-2-2-2-2-2-2------------|
E|---------------------------------------------------------|

e|------------------------------------------------------------------------|
B|------------------------------------------------------------------------|
G|------------------------------------------------------------------------|
D|-----5-----7--------4--------2--------5-----7---------9---------7-------|
A|---7-----9---9----5---5----3---3----7-----9---9----10---10----9---9-----|
E|-0-----0--------0--------0--------0-----0--------0----------0-----------|

e|--------------------------------------------------------|
B|--------------------------------------------------------|
G|--------------------------------------------------------|
D|-9~-----------------------------------------------------|
A|-7~-----------------------------------------------------|
E|--------------------------------------------------------|

Colony Tabs by Bleed From Within

  Sorry if this is a little weird. Craig (the guitarist) sent me this and it doesnt
 include the tapping and lead stuff. I'm putting this in here how the guitarist
 himself sent me.
 so let me know what you think?






Main Riff
C#---------------------------------------------------------------------------------------------------|
G#---------------------------------------------------------------------------------------------------|
E----------------------------------------------------------------------------------------------------|
B----------------------------------------------------------------------------------------------------|
F#---35----------------------00881212-57-22222--22222--22222--00881212-58-33333-33333-33333--00881212|
B-------00000--00000--00000--------------22222--22222--22222--------------33333-33333-33333----------|

        ÉÉÉÉ   ÉÉÉÉ   ÉÉÉÉ   ÉÉÉÉÉÉÉÉ    ÉÉÉÉ   ÉÉÉÉ   ÉÉÉÉ   ÉÉÉÉÉÉÉÉ    ÉÉÉÉ  ÉÉÉÉ

C#---------------------------------------------------------------|
G#---------------------------------------------------------------|
E----------------------------------------------------------------|
B----------------------------------------------------------------|
F#----------------------------9-10-9--9---------5-6-5-3-5-0-1-4--|  X3
B---1-0-00-10-12-0----000000--------13-13-10-12------------------|

        ..            ÉÉÉÉÉÉ

3rd time, the 0s, 2s and 3s are palm muted chords rather than single notes

fill 2nd and 3rd time

C#--------------------------------------------------|
G#--------------------------------------------------|
E---------------------------------------------------|
B---------------------------------------------------|
F#-----------------------8--------------------------|
B-----8bendupandbackdown--7vibrato--0--3vibrato-----|


Intro to verse


C#----------------------------------|
G#----------------------------------|
E--------------------5555555566666--|
B---66666666677777777---------------|
F#--555555555555555555555555555555--|
B-----------------------------------|

Verse


C#-------------------------------------------------------------------------------------------------|
G#--6666-----6666-----66666------------------------------------------------------------------------|
E---7777-----7777-----77777------------------------------------------------------------------------|
B---7777-----7777-----77777------------------------------------------------------------------------|
F#--5555-----5555-----55555------------------------------------------------------------------------|
B-------0--0-----0--0-------0-0-0--888888888888888888888888877777777-------------------------------|X2

fill 2nd time


C#------------------------------------------------|
G#------------------------------------------------|
E-------------------------------------------------|
B-------------------------------------------------|
F#-------------------4-4--4-5-4-4-----------------|
B----8888-8-8--8888--6-6-------8-7-5-7------------|
                     .
Verse Progression


C#-----------------------------------------------------------------------------------------|
G#-----------------------------------------------------------------------------------------|
E------------------------------------------------------------------------------------------|
B------------------------------------------------------------------------------------------|
F#--555555------5555--5555--5-7-7-7-7-8-8-8--------------------------4-5-4-4---------------| X2
B---------000000----00----00-----------------8888-8-8--8888-8-7-7-77------8-7-5-7----------|
          ÉÉÉÉÉÉ    ..    ..

fill 2nd time


C#-------------------------------------------------|
G#-------------------------------------------------|
E--------------------------------------------------|
B--------------------------------------------------|
F#-------------------4-4--4-5-4-4-