Tag: would

How Would You Feel chords by Ed Sheeran

——————————

       CAPO ON 2ND FRET

——————————

—————————————————————-

  VIDEO LESSON –   https://www.youtube.com/watch?v=s4FRBBJzBUo

—————————————————————-

          

TRANSPOSE +2 FOR PIANO/TRUE CHORDS

[CHORD SHAPES]

e|–2–|–x–|–x–|–2–|–0–|–0–|–2–|–0–|

B|–2–|–3–|–3–|–3–|–0–|–2–|–3–|–1–|

G|–0–|–2–|–0–|–4–|–0–|–0–|–2–|–2–|

D|–0–|–0–|–2–|–4–|–2–|–2–|–0–|–2–|

A|–2–|–2–|–3–|–2–|–2–|–0–|–x–|–0–|

E|–3–|–x–|–x–|–x–|–0–|–x–|–x–|–x–|

    G    Bm7    C     Bm    Em    A7    D     Am

[Intro]

G Bm7 C

G Bm7 C

[Verse 1]

G             Bm7        C

  You are the one, girl

                         G Bm7 C

You know that it’s true

G               Bm7     C

    I’m feeling younger

                               G Bm7 C

Every time that I’m alone with you

[Pre-Chorus]

Bm

    We were sitting in a parked car

Em

    Stealing kisses in a front yard

A7                               D

   We got questions we shouldn’t had asked but

[Chorus]

                   G Bm7 C

How would you feel

                          G Bm7 C

If I told you I loved you

                                   G Bm7 C

It’s just something that I want to do

              Am                D

I’m taking my time, spending my life

                             G Bm7 C

Falling deeper in love with you

                             G Bm7 C

So tell me that you love me too

[Verse 2]

G         Bm7    C                G   Bm7  C

   In the summer, as the lilacs bloom

G        Bm7                  C

   Blood flows deeper than a river

                               G Bm7 C

Every moment that I spend with you

[Pre-Chorus]

Bm                                    Em

   We were sat upon our best friend’s roof

                             A7

I had both of my arms around you

                                 D

Watching the sunrise replace the moon

[Chorus]

                   G Bm7 C

How would you feel

                          G Bm7 C

If I told you I loved you

                                   G Bm7 C

It’s just something that I want to do

              Am                D

I’m taking my time, spending my life

                             G Bm7 C

Falling deeper in love with you

                             G Bm7 C

So tell me that you love me too

[Solo]

G Bm7 C

G Bm7 C

G Bm7 C

G Bm7 C

[Pre-Chorus]

Bm

    We were sitting in a parked car

Em

    Stealing kisses in a front yard

A7                               D

   We got questions we shouldn’t had asked but

[Chorus]

                   G Bm7 C

How would you feel

                          G Bm7 C

If I told you I loved you

                                   G Bm7 C

It’s just something that I want to do

              Am                D

I’m taking my time, spending my life

                             G Bm7 C

Falling deeper in love with you

                             G Bm7 C

So tell me that you love me too

                         G Bm7 C

Tell me that you love me too

                         G Bm7 C

Tell me that you love me too

The Man Who Would Be King intro Tabs – Iron Maiden Vsion 2

 -------------------------------------------------------------------------------
                             The Man Who Would Be King - Iron Maiden
-------------------------------------------------------------------------------
: Kyle Zamory

Tuning: Standard

. submission. Enjoy!

************************************

| /   slide up
| \   slide down
| h   hammer-on
| p   pull-off
| ~   vibrato
| +   harmonic
| x   Mute note
| b   Bend
| pb  Pre-bend
| br  Bend release
| pbr Pre-bend release
| brb Bend release bend

************************************

e|--------------------------10-----------------------------------------------|
B|-----------10---12---13--------12---13-------------------------------------|
G|-----------------------------------------12--------------------------------|
D|---------------------------------------------------------------------------|
A|---------------------------------------------------------------------------|
E|---------------------------------------------------------------------------|

e|--------------------------10-----------------------------------------------|
B|-----------10---12---13--------12--------10--------------------------------|
G|------------------------------------12-------------------------------------|
D|---------------------------------------------------------------------------|
A|---------------------------------------------------------------------------|
E|---------------------------------------------------------------------------|
                                                                                    X2
e|--------------------------10---12---13--------10---------------------------|
B|-----------10---12---13------------------13--------12----------------------|
G|---------------------------------------------------------------------------|
D|---------------------------------------------------------------------------|
A|---------------------------------------------------------------------------|
E|---------------------------------------------------------------------------|

e|-----------13---12-H-13-P-12-P-10---8-H-10-P-8-----------------------------|
B|-------------------------------------------------12---8-H-10-P-10----------|
G|--------------------------------------------------------------------9------|
D|---------------------------------------------------------------------------|
A|---------------------------------------------------------------------------|
E|---------------------------------------------------------------------------|

Would You Believe chords – Billy Nicholls

 Billy Nicholls - Would You Believe
song: https://www.youtube.com/watch?v=8lhQF6ZMJBY

INTRO
 F F/E Dm7 C Bb C F C F F/E Dm7 C Bb Am F 

Aah aah aah part
 F F/E Dm7 C Bb Am Csus4 C 

Bababababa part
 F F/E Dm7 C Bb Am Gm    

CHORUS
 Bb 
I wouldn't change my mind now
 Eb 
I wouldn't waste my time now
 Bb Dm F 
I should erase my mind of you
 C 

VERSE 1
 F F/E 
Would you believe
             Dm7 C 
I loved you yesterday
           Bb 
I had the words to say 
    Am Gm 
My speech was all planned out
 C 

VERSE 2
 F F/E 
Would you believe
          Dm7 C 
I had so much to say 
             Bb 
I loved you every way
    Am Gm  
My mind was all made up
 C 

CHORUS
 Bb 
I wouldn't change my mind now
 Eb 
I wouldn't waste my time now
 Bb Dm F 
I should erase my mind of you
 C 

VERSE 3
 F F/E 
Would you believe
             Dm7 C 
I loved you more each day
             Bb  
I loved you more that way
     Am Gm 
But now it just can't last
 C 

VERSE 4
 F F/E 
Would you believe
          Dm7 C 
I had so much to say
             Bb  
I loved you every way 
     Am Gm 
But now it's just the past
 C 

INTERLUDE (doo di lee part)
 Bb Eb Bb Dm F C 

VERSE 3
 F F/E 
Would you believe
             Dm7 C 
I loved you more each day
             Bb  
I loved you more that way
     Am Gm 
But now it just can't last
 C 

VERSE 4
 F F/E 
Would you believe
          Dm7 C 
I had so much to say
             Bb  
I loved you every way 
     Am Gm 
But now it's just the past
 C 

OUTRO (play until fade out)
 F F/E Dm7 C Bb Am Csus4 C F F/E Dm7 C Bb Am Gm

It Would Be So Nice chords – Pink Floyd V2

 Pink Floyd - It Would Be So Nice
song: http://www.youtube.com/watch?v=jlJPqRs0ZLM

CHORUS
 E 
 It would be so nice
 D/E 
 It would be so nice
 C#m/E 
 It would be so nice
    F A 
To meet, sometime

VERSE 1
 D A 
Everybody wakes and in the morning
 D A 
 Hot tea and can't stop yawning
 G D 
Pass the butter please
 D A 
Have you ever read the Daily Standard?
 D A                 
Reading all about the plane that's landed
 G D 
Upside down?

PRE-CHORUS
 Bb A 
And no one knows what I did today
 Bb D 
 There can be no other way
 B7 
 But I would just like to say

CHORUS
 E 
 It would be so nice
 D/E 
 It would be so nice
 C#m/E 
 It would be so nice
    F 
To meet, sometime
 E 
 It would be so nice (It would be so)
 D/E 
 It would be so nice (nice, be so)
 C#m/E 
 It would be so nice (nice, be so)
    F A 
To meet, sometime (nice)

VERSE 2
 D A 
Everybody cares about the weather
     D A 
And everybody should know better
 G D 
What a waste of time
 D A 
Everybody lives beneath the ceiling
 D A 
Living out a dream that sends them reeling
 G D 
To a distant place

PRE-CHORUS
 Bb A 
And no one knows what I did today
 Bb D 
 There can be no other way
 B7 
 But I would just like to say

CHORUS
 E 
 It would be so nice (It would be so)
 D/E 
 It would be so nice (nice, be so)
 C#m/E 
 It would be so nice (nice, be so)
    F 
To meet, sometime (nice)

OUTRO CHORUS (2x, until fade out)
 E 
 It would be so nice (It would be so)
 D/E 
 It would be so nice (nice, be so)
 C#m/E 
 It would be so nice (nice, be so)
    G# 
To meet, sometime

I Wish You Would chords – Taylor Swift

 I Wish You Would by Taylor Swift
 1989
Track 7
2014


Standard Tuning
Capo on the 5th fret


Chords:

G:      320003 or 320033
Em:     x22000
C:      x32010
D:      xx0232

(To play without a capo replace the chords above by C, Am, F and G)


   Intro:       G 


 Verse:
 G 
 It's 2 am, in your car
 Windows down, they pass my street, the memories start
 You say it's in the past, you drive straight ahead
 You're thinking that I hate you now
 'Cause you still don't know what I never said


 Chorus:
 G 
 I wish you would come back

 Wish I'd never hung up the phone like I did
   Em 
 I wish you knew that I'd never forget you as long as I'd live and I
 C D G 
 Wish you were right here, right now, it's all good, I wish you would


 Verse:
 G 
 It's 2 am, in my room
 Headlights pass, the window pane, I think of you
 We were a crooked love in a street line down
 Em C                    (D)
 Makes you wanna run and hide then it makes you turn right back around


 Chorus:
 G 
 I wish you would come back

 Wish I'd never hung up the phone like I did
   Em 
 I wish you knew that I'd never forget you as long as I'd live and I
 C D G 
 Wish you were right here, right now, it's all good, I wish you would
 G 
 I wish we could go back

 And remember what we were fighting for
   Em 
 I wish you knew that I miss you too much to be mad anymore
 C D G 
 Wish you were right here, right now, it's all good, I wish you would
  G 
 I I I    
 I wish, I wish
  Em 
 I I I
 I wish, I wish 
  C D 
 I I I
 I wish, I wish


 Bridge:
 G 
 You always knew how to push my buttons
 Em 
 You give me everything and nothing
 C D 
 This mad mad love makes you come running
 G 
 Stand back where you stood
                                Em 
 I Wish You Would, I Wish You Would
                                 C 
 I Wish You Would, I Wish You Would
 D 
 I wish, I wish


 Verse:
 G 
 2am here we are
 See your face, hear my voice in the dark
 We were a crooked love
 In a street line down
 Em C                  (D)
 Makes you wanna run and hide but it made us turn right back around


Chorus:
 G 
 I wish you would come back

 Wish I'd never hung up the phone like I did
   Em 
 I wish you knew that I'd never forget you as long as I'd live and I
 C D G 
 Wish you were right here, right now, it's all good, I wish you would
 G 
 I wish you would come back

 Wish I'd never hung up the phone like I did
   Em 
 I wish you know that I never forget you as long as I'm living
 C D G 
 Wish you were right here, right now, it's all good, I wish you would
 G 
 I wish we could go back

 And remember what we were fighting for
   Em 
 I wish you knew that I miss you too much to be mad anymore
 C D G 
 Wish you were right here, right now, it's all good, I wish you would


 Outro:
 G 
 You always knew how to push my buttons
 Em 
 You give me everything and nothing
 C D 
 This mad mad love makes you come running
 G 
 Stand back where you stood
                                Em 
 I Wish You Would, I Wish You Would
                                 C 
 I Wish You Would, I Wish You Would
 D G 
 I wish, I wish
                              G 
 I wish, I wish, I wish you would

I Would For You Tabs – Nine Inch Nails

 Artist: Nine Inch Nails
Song: I would for you
Album Hesitation Marks (2013)

Please Rate!

Tuning drop D for all Guitars

Guitar 1 (D A D G B e)
Guitar 2 (D A D G B e)
Guitar 3 (D A D G B e)

Verse: 'What a pathetic string of words' [0.19-1.12]

Guitar 1 (Clean) (short delay about 1 repeat for each mute)
e|-----------------------------------------------------------------|
B|-------x-x------------x-x-----------x-x----------x-x--------x-x--|
G|-------x-x------------x-x-----------x-x----------x-x--------x-x--|
D|-------x-x------------x-x-----------x-x----------x-x--------x-x---|x2
A|-----------------------------------------------------------------|
D|-----------------------------------------------------------------|

Guitar 2 (Distorted) (w/delay)[0.47-1.12]                
              P.M|-----------------------------------------------------------|
e|---------------------------------------------------------------------------|
B|---------------------------------------------------------------------------|
G|---------------------------------------------------------------------------|
D|-------------------------------------------1-1-1-1-1-1-1-1-----------------|
A|-----3\1-3/1-----3-3-3-3-3-3-3-3-3-3--3-3------------------3-1-3-1-3(x4)---|
D|---------------------------------------------------------------------------|


Chorus [1.12-1.39] 'See I keep lying to myself'

Guitar 1 (Chorus) (Distorted)
e|------------------------------------------------------------------------------------------|
B|------------------------------------------------------------------------------------------|
G|------------------------------------------------------------------------------------------|
D|----15-15-15-15-15-15-15-15--13-13-13-13-13-13-13-13--6-6-6-6-6-6-6-6-6-6-6-6-6-6-6-6-----|
A|----15-15-15-15-15-15-15-15--13-13-13-13-13-13-13-13--6-6-6-6-6-6-6-6-6-6-6-6-6-6-6-6-----|
D|----15-15-15-15-15-15-15-15--13-13-13-13-13-13-13-13--6-6-6-6-6-6-6-6-6-6-6-6-6-6-6-6-----|

Guitar 1 Continued...
e|------------------------------------------------------------------------------------------|
B|------------------------------------------------------------------------------------------|
G|------------------------------------------------------------------------------------------|
D|----15-15-15-15-15-15-15-15--13-13-13-13-13-13-13-13--8-8-8-8-8-8-8-8-6-6-6-6-6-6-6-6-----| (X2
A|----15-15-15-15-15-15-15-15--13-13-13-13-13-13-13-13--8-8-8-8-8-8-8-8-6-6-6-6-6-6-6-6-----|
D|----15-15-15-15-15-15-15-15--13-13-13-13-13-13-13-13--8-8-8-8-8-8-8-8-6-6-6-6-6-6-6-6-----|

Guitar 2 (Chorus) (Distorted)
I'm sure this part is some kind of synth, I play this part using: reverse delay mixed 
along with the space setting on my Reverb Pedal.
 
e|------------------------------------------------------------------------------------------|
B|------------------------------------------------------------------------------------------|
G|----10brb11-8brb9---------------10brb11-8brb9---------------------------------------------|
D|------------------6brb7-6brb7-------------------8brb9--6brb7------------------------------| x2
A|------------------------------------------------------------------------------------------|
D|------------------------------------------------------------------------------------------|

Verse [1.39-1.42]                             
Guitar 2 (Overdriven)   
                             [Delay]   
P.M|------------------------|
e|------------------------------------|
B|------------------------------------|
G|------------------------------------|
D|--2-2-2-2-2-2-2--------------5-3----|
A|-------------------3-1-3-1---3\1----|
D|------------------------------------|

Verse [1.42-2.15] 'Didn't it seem like something more'

Guitar 2 (Overdriven) 
P.M|------------------------------------------------------------|
e|--------------------------------------------------------------|
B|--------------------------------------------------------------|
G|----------------------

Would You Still Be There Tabs by Of Mice And Men

 Would You Still Be There Tabs 
Artist: Of Mice & Men
 Restoring Force
Tab by: http://www.youtube.com/jamesmouamusic


Of Mice & Men - Would You Still Be There (Official Video) 

 
Of Mice & Men FB page... 
https://www.facebook.com/ofmice 
 
Of Mice & Men Rise Records page... 
http://www.riserecords.com/press-assets-details.php?artist=Of_Mice_%26_Men_31


b: bend 
/: slide 
*: palm mute 
h: hammer on 
~: let it ring 
p: pinch harmonic 
/////: picking tremolo
x: scratch
po: pull off



INTRO:
D||-------------------------------------------------------------------------|
A||-------------------------------------------------------------------------|
F||-------------------------------------------------------5p----------------|
C||-10-0-0--00--0h2-2-x-0h2-2-x-------5-4--0h2-2--x0h2--5p--5p--------------|
G||-10-0-0--00--0h2-2-x-0h2-2-x-0-2h5------0h2-2--x0h2----------------------|
C||-10-0-0--00--0h2-2-x-0h2-2-x------------0h2-2--x0h2----------------------|


D||-------------------------------------------------------------------------|
A||-------------------------------------------------------------------------|
F||-------------------------------------------------------------------------|
C||-0h2-2-x-0h2-2-x-------5-4--0h2-2--x0h2----------------------------------|
G||-0h2-2-x-0h2-2-x-0-2h5------0h2-2--x0h2----------------------------------|
C||-0h2-2-x-0h2-2-x------------0h2-2--x0h2----------------------------------|



VERSE 1:
D||-------------------------------------------------------------------------|
A||-------------------------------------------------------------------------|
F||---------------------------------------------------------[REPEAT x2]-----|
C||-22-4h5po4---------222h4-----22-4h5po4---------4-------------------------|
G||-22--------222-555-----------22--------222-555---55----------------------|
C||-22--------------------------22------------------------------------------|
    **        *** *** **        **        *** ***

D||-------------------------------------------------------------------------|
A||-------------------------------------------------------------------------|
F||-------------------------------------------------------------------------|
C||-77-7h9po7------------777h9---77-7h9po7------------777h9-----------------|
G||-77--------777-101010---------77--------777-101010-----------------------|
C||-77---------------------------77-----------------------------------------|
    **        *** * * *          **        *** * * *  **

D||-------------------------------------------------------------------------|
A||-------------------------------------------------------------------------|
F||-------------------------------------------------------------------------|
C||-22-4h5po4---------222h4-----22-4h5po4----------4--------7~--5~----------|
G||-22--------222-555-----------22--------222-5555---55-----5~--3~----------|
C||-22--------------------------22------------------------------------------|
    **        *** *** **        **        *** **** 



CHORUS:
D||-------------------------------------------------------------------------|
A||-----------------------------------------------------------[REPEAT x2]---|
F||-------------------------------------------------------------------------|
C||-22-00-22/555555--22-00-22/555/777--22-00-22/555555--5-(x8)--------------|
G||-22-00-22/555555--22-00-22/555/777--22-00-22/555555--3-------------------|
C||-22-00-22/555555--22-00-22/555/777--22-00-22/555555--------0-0-000~------|



FILL-IN:
D||-------------------------------------------------------------------------|
A||-------------------------------------------------------------------------|
F||-------------------------------------------------------5p----------------|
C||-10-0-0--00--0h2-2-x-0h2-2-x-------5-4--0h2-2--x0h2--5p--5p--------------|
G||-10-0-0--00--0h2-2-x-0h2-2-x-0-2h5-----

The Words I Would Say chords – Sidewalk Prophets V6

 Capo on the 3rd fret
Standard Tuning


Chords

    G C2 Em7 Dsus 
e|-3-----3-----3-----3-----|
B|-3-----3-----3-----3-----|
G|-0-----0-----0-----2-----|
D|-0-----2-----2-----0-----|
A|-2-----3-----2-----x-----|
E|-3-----x-----0-----x-----|

(Verse 1)

   G C Em C 
Three in the morning and I'm still awake so I picked up a pen and a page. And

 G C Em C D 
I started writing just what I'd say if we were face to face. I'd tell

      Em D C G 
you just what you mean to me, tell you these simple truths.


(Chorus)

 G C Em        
Be strong in the Lord and never give up hope. You're gonna do great things,

 D G C                 
I already know. God's got His hand on you so don't live life in fear.

   Em C D 
Forgive and forget but don't forget why you're here. Take your time and

 Em D G 
pray. * These are the words I would say.


(Verse 2)     

 G C Em                  
Last time we spoke you said you were hurting and I felt your pain in my

   C G C Em                 
heart. I want to tell you that I keep on praying love will find you where

      C G Em D C 
you are. I know cause I've already been there so please hear these simple

   G 
truths.


(Bridge)

       C Em C G C D 
From one simple life to another, I will say, come find peace in the Father. 



(Chorus)


*(Ending)

   D Em C G D                
Thank God for each day. His love will find a way. These are the words I would

  G 
say.

So You Would Come chords – Praise And Worship V2

 C F G C 
Before the world began, You were on his mind
 F C/E Dm G 
And every tears you cry, is precious in his eyes
   F C/E E/G# Am 
Because of his great love, he gave his only son
 Dm G C F/G 
Everything was done, so you would come
 C F G C 
Nothing you can do , could make his love you more
       F C/E Dm G 
and nothing you've done , could make his close the door
    F C/E E/G# Am 
Because of his great love, he gave his only son
 Dm G C/E 
Everything was done,so you would come
 F F/G G C 
Come to the Father, though your gift is small
 F C/E Dm G 
Broken hearts, Broken lives, He will take them all
 F Em Am 
The power of the word, the power of His blood
 Dm G C 
Everything was done , So you would come

What Would Love Do chords – Scott Stapp

 Intro:  Dsus2 (palm mute)
D# --x--
A# --x--
F#--(2)--
C#--(0)--
G#--(0)--
D# --x--

 Dsus2 
Go ahead and throw it in my face
Remind me of each of my mistakes
 B ---------- C# ---------- D -------------- E ---- F# -- D 
Turn on me tell me I’m wrong that it’s all my fault
 Dsus2 
I feel I’m losing control
Putting my fists through the wall
 B ---------- C# ---------- D -------------- E ---- F# -- D 
This is the place that I break I can’t take anymore
 Bsus2 Asus2 G 
I see the fear in your eyes
 Bsus2 Asus2 G  (hold)
I’m frozen standing still in time

Chorus
 Dsus2 Asus2 
What would love do-o-o
      Bsus2 G   
What would love do
 Dsus2 Asus2 Bsus2 G   
It would look in my face and stop me from hurting you
Dsus2 (palm mute)
What would love do
What would love do

 Dsus2 
I broke down and fell to the floor
Said I can’t do this anymore
B----------C#----------D------------E---F#--D
I almost lost the one thing I could never lose
 Dsus2 
I felt completely disarmed
Naked stripped down to the heart
B----------C#----------D------------E---F#--D
Humble and shaken its time to start healing these wounds
 Bsus2 Asus2 G 
How do I break from this hell
 Bsus2 Asus2 G 
It’s time I start asking myself

 Dsus2 Asus2 
What would love do
      Bsus2 G  
What would love do
 Dsus2 Asus2 Bsus2 G  
If it were here in this room standing between me and you
 Dsus2 Asus2 
What would love do
      Bsus2 G  
What would love do
 Dsus2 Asus2 Bsus2 G  
It would look in my face and stop me from hurting you
                         B5  
That’s what love would do

   G5 D5 
Its time to come out of the dark
 A5 B5 
And step into the light
 G5 D5 
When fear tries to tear us apart
 A5 D5  (hold)
And we’re torn between two sides


 Dsus2 Asus2 
What would love do
      Bsus2 G  
What would love do
 Dsus2 Asus2 Bsus2 G  
It would look in my face and stop me from hurting you

 Dsus2 Asus2 
What would love do
      Bsus2 G  
What would love do
 Dsus2 Asus2 Bsus2 G  
If it were here in this room standing between me and you
 Dsus2 Asus2 
What would love do
      Bsus2 G  
What would love do
 Dsus2 Asus2 Bsus2 G  
It would look in my face and stop me from hurting you
                         Dsus2  
That’s what love would do
 Dsus2 Asus2 Bsus2 G Dsus2 
B---C#---D(hold)

Wish The Wind Would Blow Me chords – Bob Schneider

 (Intro)  C ,  E ,  F ,  G  2x

   C E F G 
I wish I was a baby bear sleeping in the brown
 C E F G 
winter grass in April, while the sun was going down
 C E F G 
I wish my shoes were empty and I was still in bed
 F C E Am 
with you there beside me with your dreams inside your head
   F C E Am 
I wish the world would do what I want it to
       F C G C ,  E ,  F ,  G ,  C ,  E ,  F ,  G 
and I wish the wind would blow me, blow me back to you

        C E F G 
Well I wish your mom was ugly and your dad was ugly too
 C E F G 
Then they couldn’t have a girl to be as beautiful as you
 C E F G 
I wish I was a tightrope walker with legs made out of gold
 F C E Am 
I’d hold you in my golden legs and never let you go
   F C E Am 
I wish the world would do what I want it to
       F C G C ,  E ,  F ,  G ,  C ,  E ,  F ,  G 
and I wish the wind would blow me, blow me back to you


        C E F G 
Well I wish I could see Jesus shining in the sky
              C E F G 
and he could let me know that everything will be all right
   C E F G 
I wish I knew that God’s love was all I’d ever need
      F C E Am 
I’d cut my candyteeth for fun and let the good times bleed
      F C E Am 
Oh I wish the world would do what I want it to
  F C E Am 
Wish the world would do what I want it to
       F C G C 
and I wish the wind would blow me, blow me back to you

Would You Like To Play The Guitar Tabs by Pat Donohue

 -------------------------------------------------------------------------------
                          Would You Like to Play the Guitar (Pat Donohue)  
-------------------------------------------------------------------------------
:Peter B       
berg1101

Tuning:Standard

Intro
         E                                                       A
e|--5/7---7--------------7\6-----5---------------5-------------------------|
B|-------------5--5--------------5----7p6---5----5-------------------------|
G|------------------------------------------6------------------------------|
D|-------------6-----------------------------------------------------------|
A|--------0----------0--------------0--------------------------------------|
E|-------------------------------------------------------------------------|

               D7               G
e|--5------5-----------5--------3------------------------------------------|
B|-----5-------3---3------5-----3--5--4p3----------------------------------|
G|-------------------------------------------------------------------------|
D|-------------4-----------------------------------------------------------|
A|---------5-------5-------------------------------------------------------|
E|--5---------------------------3------------------------------------------|

    E                            A
e|--5/7---7--------------7\6-----5-----------------------------------------|
B|-------------5--5--------------5----7p6---5------------------------------|
G|------------------------------------------6------------------------------|
D|-------------6-----------------------------------------------------------|
A|--------0----------0--------------0--------------------------------------|
E|-------------------------------------------------------------------------|

    D9                                   G
e|-----5--7---5---7/8---5--------------------------------------------------|
B|-------------------------7--------8\0-----0------------------------------|
G|-----------------------------7------------0------------------------------|
D|--------4----------------------------------------------------------------|
A|-------------------------------------------------------------------------|
E|--5---------------------------------------3------------------------------|

Chorus
    E                            A
e|--5/7---7--------------7\6-----5---------------5-------------------------|
B|-------------5--5--------------5----7p6---5----5-------------------------|
G|------------------------------------------6------------------------------|
D|-------------6-----------------------------------------------------------|
A|--------0----------0--------------0--------------------------------------|
E|-------------------------------------------------------------------------|
    Would you like to play…


               D7                G
e|--5------5-----------5--------3------------------------------------------|
B|-----5-------3---3------5-----3--5--4p3----------------------------------|
G|-------------------------------------------------------------------------|
D|-------------4-----------------------------------------------------------|
A|---------5-------5-------------------------------------------------------|
E|--5---------------------------3------------------------------------------|
    Carry money home…

     E                         A7
e|---0------------------0------------------3--3----------------------------|
B|------0--0---0----0-----0----2-----2-----2--2----------------------------|
G|------------------1------------------------------------------------------|
D|--------------------------------2----------------------------------------|
A|-------------2---------------0--------0----------------------------------|
E|---------0-------0-------------------------------------------------------|
   From a coffee house...

   

Wish It Would Break chords – Dierks Bentley

 Deirks Bentley - Wish it would break

Intro -  C  -  G  -  C  -  G  -  C  

(verse 1)
          G 
That ole picture frame keeps hangin round,
         C 
I ain't ready yet to take it down,
        G 
Every now and then I'll slam the door,
 C 
Shake it loose and she'll hit the floor,


(bridge)
     Em D C 
But I can't throw a good thing away,
                   G 
I wish it would break,


(verse 2)
        G 
And I swear my trucks got a haunted radio,
      C 
Cause I hear you in every song,
       G 
But I know what the silence makes me do,
 C 
So I give those buttons more abuse,


(bridge)
   Em D C 
I wonder how much punchin it can take,
                    G 
I wish it would break,


(chorus)
            C G D 
There could move on, right on down the line,
            C G D 
Her I don't See you , need you, in my life,
             Em 
But you're wrapped around me,
       D C 
Your memories bound me, like a chain,
                    G 
I wish it would break,


(verse 3)
          G 
This ole hearts got a mind of it's own,
      C 
IT's decided not to let you go,
          G 
And even though your love's no longer here,
  C 
It won't let me shed one tear,

(bridge)
        Em D C 
Cause it's still holdin on till yesterday,
                    G 
I wish it would break,


(chorus)
            C G D 
There could move on, right on down the line,
            C G D 
Her I don't See you , need you, in my life,
             Em 
But you're wrapped around me,
       D C 
Your memories bound me, like a chain,
                    G   -  C                
I wish it would break,    
                    G   -  C 
I wish it would break,
                       G   -  C 
yea I wish it would break,
                 G 
Go on and break.

He Who Would Valium Take chords – Half Man Half Biscuit

 (intro  C F C G7 C )
     C F 
The car that's parked on a pavement narked
   C G7 C  
Pedestrians and children with chalk
                                  F 
Their games, their shapes, their capers, their japes
    C G7 C 
Destroyed by a thoughtless shitehawk.
                              F C G 
And yea though I walk in the road to get past, I'm not in the least afraid
     C F 
For soon I shall fly to the sweet by and by
  C G7 C 
Away from a world without shade.
                          F C G7 C 
A streaker streaks and a nation shrugs at a saucer-like disc in the sky
   C F 
A stag weekend is a poor weekend
        C G7 C 
If the army is not on standby.
                          F 
Pub grub, pub games, pub bands, pub names
     C G 
The Pit Bull that's great with kids
    C F 
If Chelsea, Chantelle and Jordan should gel
    C G7 C 
My fears would be laid to my skids.
                              F C G7 C 
The maverick cops with their average flasks and boring unorthodox ways
     C F 
The previous life as a Pharaoh's wife
    C G7 C 
Is mightily irksome these days.
                       F C G 
The Lady In Red hides under the bed from a husband who quotes Chubby Brown
      C F 
It's cold and it's wet and the knell of regret
    C G7 C 
Is pealing throughout every town
                   G7 C 
Is pealing throughout every town.

Mister Would You Please Help My Pony chords – Ween

 [intro riff]
|----------------------------------------|
|-4-4-4-4--------------------------------|
|-4-4-4-4--------------------------------|
|-4-4-4-4--------7----7-9-7--------------|
|-2-2-2-2----7-9---9--------9-7-9-7------|
|-----------------------------------9-7--|

[verse one]
 E D#m 
Mister, would you please help my pony?
      D C#m 
He's over there behind the tree
      A G#m 
He's down in the dirt would you help him?
[w/intro riff]
I think it's his lung

[verse two]
 E D#m 
Mister, would you please help my pony?
      D C#m 
He's chewin' bar and not the leaves
      A G#m 
He's cryin' like a baby would you help him?
[w/intro riff]
I think it's his lung


[verse three]
 E D#m 
Mister, would you please help my pony?
      D C#m 
He's down - He ain't gettin' up
    A G#m 
He coughed up snot on the driveway
[w/intro riff]
And I think his lung's fucked up


[bridge]
 F#m E F#m E F#m  
Pon - y,  pon - y,  pony

 D C#m A C# D F#m B D C#m A C# D F#m B 

[solo]
 E D#m D C#m A G#m B E D#m D C#m A G#m B B B C C# 


[verse four]
 E D#m 
Mister, would you please help my pony?
      D C#m 
He's over there lookin' at me
    A G#m 
He can't talk because he's a pony
[w/intro riff]
I think it's his lung

[repeat verse one:end abruptly on lung]