Tag: yellow

Yellow Acoustic chords – Coldplay Vsion 8

 CAPO 4 

Intro  G G 
Look at the stars,
                          D 
Look how they shine for you,
                     C 
And everything you do,
                         G 
Yeah they were all yellow,

  
I came along
                     D 
I wrote a song for you
                         C 
And all the things you do
                        G 
And it was called yellow

                      D 
So then I took my turn
                           C 
Oh what a thing to have done
                     G 
And it was all yellow

 C 
Your skin
 Em D 
Oh yeah your skin and bones
 C Em D    
Turn into something beautiful
 C Em D 
You know you know I love you so
C                      G (carry on to next verse)
You know I love you so

 G 
I swam across
                   D 
I jumped across for you
                    C 
Oh what a thing to do
                        G 
Cause you were all yellow

 G 
I drew a line
                 D 
I drew a line for you
                    C 
Oh what a thing to do
                     G 
And it was all yellow

 C 
Your skin
 Em D 
Oh yeah your skin and bones
 C Em D 
Turn into something beautiful
 C Em D C 
You know for you I'd bleed myself dry
                           G 
For you I'd bleed myself dry

(carry on as if it were a verse with the progression G D C G)

      G D 
It's true look how they shine for you
                         C 
Look how they shine for you
                         G 
Look how they shine for...
                         D 
Look how they shine for you
                         C 
Look how they shine for you

Look how they shine
  
 G D 
Look at the stars look how they shine for you
                           C G 
And all the things that you do








This is is my first tab and one of the first songs I learned to play, enjoy! :-) 

Strange Dreams intro Tabs by Red Lorry Yellow Lorry

 -------------------------------------------------------------------------------
                    Strange Dreams - Red Lorry Yellow Lorry
-------------------------------------------------------------------------------

: Maya L T 

Tuning: Standard


e|---------------------------------------------------------------------------|
B|---------------------------------------------------------------------------|
G|-----------5---7-----------------------------------------------------------|
D|-------7---------------7---9---10---9---5----------------------------------|
A|---5---------------5-------------------------------------------------------|
E|---------------------------------------------------------------------------|

This bit is played over the top.

e|---------------------------------------------------------------------------|
B|---------------------------------------------------------------------------|
G|---(7)---9-h-10-p-9--------7-------9---10---9--------7---------------------|
D|----------------------10-------8----------------10-------------------------|
A|---------------------------------------------------------------------------|
E|---------------------------------------------------------------------------|


That's the intro


************************************
| h   hammer-on
| p   pull-off
************************************

Big Yellow Taxi chords – Lennon And Maisy

 Big yellow taxi: Lennon and Maisy

VERSE 1

 D 
Mmm ma ma ma ma ma
 G D 
They paved paradise and put up a parking lot

 G D 
With a pink hotel, a boutique, and a swingin' hot spot

 D 
Don't it always seem to go

         G 
That you don't know what you got 'til it's gone
 G A D 
They paved paradise and put up a parking lot

VERSE 2
         G D 
They took all the trees, and put em in a tree museum

 G D        
And they charged the people a dollar and a half to see them

 D 
Don't it always seem to go

              G 
That you don't know what you got 'til it's gone

              G A 
They paved paradise and put up a parking lot

 D 
mmmmm ma ma  ma ma ma (x2)



VERSE 3
       G D 
Hey farmer, farmer, put away your DDT

                             G 
Give me spots on my apples

         D 
Leave me the birds and the bees, Please

 D 
Don't it always seem to go

         G 
That you don't know what you got 'til it's gone
         G A D 
They paved paradise and put up a parking lot

         D 
mmmm ma ma ma ma ma (x2)

Solo
 D 

VERSE 4 
         G D 
Listen, late last night, I heard the screen door slam

         G D 
And a big yellow taxi took my  ole' man

 D 
Don't it always seem to go
           G 
That you don't know what you got 'til it's gone
              G A 
They paved paradise and put up a parking lot

Yellow Tabs – Coldplay V8

 -------------------------------------------------------------------------------
                                YELLOW - Coldplay
-------------------------------------------------------------------------------
: Martin Bowers

Tuning: EADGBE*

*NB: This tab is a variation of the original that allows it to be 
     played with standard EADGBE tuning.


Intro (acoustic):

    B                           B        Badd4    
e|--7--7--7--7--7--7--7--7-7-|--7--7--7--0--0--0--0--0--|
B|--7--7--7--7--7--7--7--7-7-|--7--7--7--0--0--0--0--0--|
G|--8--8--8--8--8--8--8--8-8-|--8--8--8--8--8--8--8--8--|
D|--9--9--9--9--9--9--9--9-9-|--9--9--9--9--9--9--9--9--|
A|--9--9--9--9--9--9--9--9-9-|--9--9--9--9--9--9--9--9--|
E|--7--7--7--7--7--7--7--7-7-|--7--7--7--7--7--7--7--7--|
    |  |  |  |  |  |  |  | ˄    |  |  |  |  |  |  |  |
    ▼  ˅  ▼  ˅  ˅  ˅  ▼  ˅ |    ▼  ˅  ▼  ˅  ˅  ˅  ˅  ˅

    B                           B        Badd4    
e|--7--7--7--7--7--7--7--7-7-|--7--7--7--0--0--0--0--0--|
B|--7--7--7--7--7--7--7--7-7-|--7--7--7--0--0--0--0--0--|
G|--8--8--8--8--8--8--8--8-8-|--8--8--8--8--8--8--8--8--|
D|--9--9--9--9--9--9--9--9-9-|--9--9--9--9--9--9--9--9--|
A|--9--9--9--9--9--9--9--9-9-|--9--9--9--9--9--9--9--9--|
E|--7--7--7--7--7--7--7--7-7-|--7--7--7--7--7--7--7--7--|
    |  |  |  |  |  |  |  | ˄    |  |  |  |  |  |  |  |
    ▼  ˅  ▼  ˅  ˅  ˅  ▼  ˅ |    ▼  ˅  ▼  ˅  ˅  ˅  ˅  ˅

    B                           B        Badd4    
e|--7--7--7--7--7--7--7--7-7-|--7--7--7--0--0--0--0--0--|
B|--7--7--7--7--7--7--7--7-7-|--7--7--7--0--0--0--0--0--|
G|--8--8--8--8--8--8--8--8-8-|--8--8--8--8--8--8--8--8--|
D|--9--9--9--9--9--9--9--9-9-|--9--9--9--9--9--9--9--9--|
A|--9--9--9--9--9--9--9--9-9-|--9--9--9--9--9--9--9--9--|
E|--7--7--7--7--7--7--7--7-7-|--7--7--7--7--7--7--7--7--|
    |  |  |  |  |  |  |  | ˄    |  |  |  |  |  |  |  |
    ▼  ˅  ▼  ˅  ˅  ˅  ▼  ˅ |    ▼  ˅  ▼  ˅  ˅  ˅  ˅  ˅

    F#add11                     F#add11
e|---------------------------|---------------------------|
B|--0--0--0--0--0--0--0--0-0-|--0--0--0--0--0--0--0--0-0-|
G|--3--3--3--3--3--3--3--3-3-|--3--3--3--3--3--3--3--3-3-|
D|--4--4--4--4--4--4--4--4-4-|--4--4--4--4--4--4--4--4-4-|
A|--4--4--4--4--4--4--4--4-4-|--4--4--4--4--4--4--4--4-4-|
E|--2--2--2--2--2--2--2--2-2-|--2--2--2--2--2--2--2--2-2-|
    |  |  |  |  |  |  |  | ˄    |  |  |  |  |  |  |  | ˄
    ▼  ˅  ▼  ˅  ˅  ˅  ▼  ˅ |    ▼  ˅  ▼  ˅  ˅  ˅  ▼  ˅ |

    E                           E 
e|--0--0--0--0--0--0--0--0-0-|--0--0--0--0--0--0--0--0-0-|
B|--0--0--0--0--0--0--0--0-0-|--0--0--0--0--0--0--0--0-0-|
G|--1--1--1--1--1--1--1--1-1-|--1--1--1--1--1--1--1--1-1-|
D|--2--2--2--2--2--2--2--2-2-|--2--2--2--2--2--2--2--2-2-|
A|--2--2--2--2--2--2--2--2-2-|--2--2--2--2--2--2--2--2-2-|
E|--0--0--0--0--0--0--0--0-0-|--0--0--0--0--0--0--0--0-0-|
    |  |  |  |  |  |  |  | ˄    |  |  |  |  |  |  |  | ˄
    ▼  ˅  ▼  ˅  ˅  ˅  ▼  ˅ |    ▼  ˅  ▼  ˅  ˅  ˅  ▼  ˅ |

    B                           B        Badd4    
e|--7--7--7--7--7--7--7--7-7-|--7--7--7--0--0--0--0--0--|
B|--7--7--7--7--7--7--7--7-7-|--7--7--7--0--0--0--0--0--|
G|--8--8--8--8--8--8--8--8-8-|--8--8--8--8--8--8--8--8--|
D|--9--9--9--9--9--9--9--9-9-|--9--9--9--9--9--9--9--9--|
A|--9--9--9--9--9--9--9--9-9-|--9--9--9--9--9--9--9--9--|
E|--7--7--7--7--7--7--7--7-7-|--7--7--7--7--7--7--7--7--|
    |  |  |  |  |  |  |  | ˄    |  |  |  |  |  |  |  |
    ▼  ˅  ▼  ˅  ˅  ˅  ▼  ˅ |    ▼  ˅  ▼  ˅  ˅  ˅  ˅  ˅



  Main riff used frequently throughout song (distorted electric): 
  

e|--7--7--7--7--7--7--7--7--|--7--7--7--7--7--7--7--7--|
B|--7--7--7--7--7--7--7--7--|--7--7--7--7--7--7--7--7--|
G|9b11-11-11-11-11-11-11-11-|-r9--9--9--9--9--9--9--9--|
D|--------------------------|--------------------------|
A|--------------------------|--------------------------|
E|--------------------------|--------------------------|


e|---11-11-11-11-11-11-11-11-|--11-11-11-11-11-11-11-11-|
B|---11-11-11-11-11-11-11-11-|--11-11-11-11-11-11-11-11-|
G|13b15-15-15-15-15-15-1

Miasmal Smoke And The Yellow Bellied Freaks intro Tabs – Wintersleep

 e-----------------------------------------------------------|
B-----------------------------------------------------------|
G--12-12-12h14-12h14----------------------------------------|
D--------------------12-12-12h14-12h14---------repeat-------|
A-----------------------------------------------------------|
E-----------------------------------------------------------|

Marathon Runner chords – Yellow Ostrich

 [Intro]

 Am C F F  x2


[Verse]

 Am C F 
When I was a boy of seventeen

   F 
I know it's mean, but I

 Am C F 
I told my friend to give up on her dreams

     F 
She hated me, but I

 Am C F 
I knew the dreams were for the best of us 

             F 
And for the rest of us, and I

 Am C F F 
I didn't wanna share with anyone



 Am Aadd9 Asus Am C F 
I need a way to see my greatest dance 

     F 
and make them laugh

 Am C F 
I could win the wars or lose the battles, too

 F 
Whichever's true

 Am C F 
I can live in other peoples' lives

              F Am 
I can't stop putting on other peoples' clothes

   C F F 
I love them 'til I leave


[Chorus]

 C 
I am a marathon runner

 G F 
And my legs are sore

                    Em Dm 
And I'm anxious to see what I'm running for

 C 
I am a hot air ball0on

 G 
On a sailboat

 F Em Dm 
I would make this my home if I'd learned to float



 Am Aadd9 Asus Am C F 
So take my treasures, take my earthly life, 

 F 
I'll try to cry,

 Am C F 
I will live without the things I love the best

              F 
So hold them to your chest

 Am C F 
I will lose my faces, lose my stolen wigs, 

     F 
The heads of kings

 Am C F F 
I will run until I know what to believe



[Bridge]

 Am C F F  x4



 C 
I am a marathon runner

 G F 
And my legs are sore

                    Em Dm 
And I'm anxious to see what I'm running for

 C 
I am a hot air ball0on

 G 
On a sailboat

 F Em Dm 
I would make this my home if I'd learned to float



 C 
I am a marathon runner

 G F 
And my legs are sore

                    Em Dm 
And I'm anxious to see what I'm running for

 C 
I am a hot air ball0on

 G 
On a sailboat

 F Em Dm 
I would make this my home if I'd learned to float

 C

Itsy Bitsy Teenie Weenie Yellow Polka Dot Bikini Tabs by Bbq Chickens

 itsy bitsy teenie weenie yellow polka dot bikini


bbq chickens


 RUDY GUZMAN


guzman_84@hotmail.com




                                               
e:--------------------------|
B:--------------------------|
G:-----------7--7-9-7-6-----|
D:----4--7--------------9-7-|
A:-5------------------------|
E:--------------------------|

  verse
e:-----------------------------5--5-5-5--5--------------3-3--3-3-3--3-|
B:-7-7--7-7-7--7---------------5--5-5-5--5--7-7--7-7-7--2-2--2-2-2--2-|
G:-7-7--7-7-7--7--6--6-6-6--6--6--6-6-6--6--7-7--7-7-7--3-3--3-3-3--3-|
D:-7-7--7-7-7--7--7--7-7-7--7--5--5-5-5--5--7-7--7-7-7--0-0--0-0-0--0-|
A:-5-5--5-5-5--5--7--7-7-7--7--7--7-7-7--7--5-5--5-5-5----------------|
E:----------------5--5-5-5--5--5--5-5-5--5----------------------------|


e:-3-3--3-3-3--3---------------------|
B:-3-3--3-3-3--3--7-7-7---------7-7--|
G:-4-4--4-4-4--4--7-7-7--6-6-6--7-7--|
D:-5-5--5-5-5--5--7-7-7--7-7-7--7-7--|
A:-5-5--5-5-5--5--5-5-5--7-7-7--5-5--|
E:-3-3--3-3-3--3---------5-5-5-------|


  1, 2, 3, 4 tell the people what you want

   It was an itsy, bitsy, teenie, weenie, yellow polka-dot bikini
e:---------------------------------------------------------------|
B:---------------------------------------7-7-7-7-7-7-7-7-7-7-7-7-|
G:-----------6-6-6-6-6-6-6-6-6-6--6-6-6--7-7-7-7-7-7-7-7-7-7-7-7-|
D:-----------7-7-7-7-7-7-7-7-7-7--7-7-7--7-7-7-7-7-7-7-7-7-7-7-7-|
A:-----------7-7-7-7-7-7-7-7-7-7--7-7-7--5-5-5-5-5-5-5-5-5-5-5-5-|
E:-----------5-5-5-5-5-5-5-5-5-5--5-5-5--------------------------|

  that she wore for the first time today
e:--------------------------------------|
B:----------------------7-7-7-7-7-7-7-7-|
G:-6-6-6-6-6-6-6-6-6-6--7-7-7-7-7-7-7-7-|
D:-7-7-7-7-7-7-7-7-7-7--7-7-7-7-7-7-7-7-|
A:-7-7-7-7-7-7-7-7-7-7--5-5-5-5-5-5-5-5-|
E:-5-5-5-5-5-5-5-5-5-5------------------|

  an itsy, bitsy, teenie, weenie, yellow polka dot bikini
e:-------------------------------------------------------|
B:-------------------------------7-7-7-7-7-7-7-7-7-7-7-7-|
G:---6-6-6-6-6-6-6-6-6-6--6-6-6--7-7-7-7-7-7-7-7-7-7-7-7-|
D:---7-7-7-7-7-7-7-7-7-7--7-7-7--7-7-7-7-7-7-7-7-7-7-7-7-|
A:---7-7-7-7-7-7-7-7-7-7--7-7-7--5-5-5-5-5-5-5-5-5-5-5-5-|
E:---5-5-5-5-5-5-5-5-5-5--5-5-5--------------------------|

  so, in the blanket she wanted...
e:------------------------------------|
B:------------------------------------|
G:-6-6-6-6-6-6-6-6-6------------------|
D:-7-7-7-7-7-7-7-7-7-----------7------|
A:-7-7-7-7-7-7-7-7-7-7--5-4-2--5------|
E:-5-5-5-5-5-5-5-5-5-5--3-2-0---------|


e:--------------------------|
B:--------------------------|
G:-----------7--7-9-7-6-----|
D:----4--7--------------9-7-|
A:-5------------------------|
E:--------------------------|

  verse
e:-----------------------------5--5-5-5--5--------------3-3--3-3-3--3-|
B:-7-7--7-7-7--7---------------5--5-5-5--5--7-7--7-7-7--2-2--2-2-2--2-|
G:-7-7--7-7-7--7--6--6-6-6--6--6--6-6-6--6--7-7--7-7-7--3-3--3-3-3--3-|
D:-7-7--7-7-7--7--7--7-7-7--7--5--5-5-5--5--7-7--7-7-7--0-0--0-0-0--0-|
A:-5-5--5-5-5--5--7--7-7-7--7--7--7-7-7--7--5-5--5-5-5----------------|
E:----------------5--5-5-5--5--5--5-5-5--5----------------------------|


e:-3-3--3-3-3--3---------------------|
B:-3-3--3-3-3--3--7-7-7---------7-7--|
G:-4-4--4-4-4--4--7-7-7--6-6-6--7-7--|
D:-5-5--5-5-5--5--7-7-7--7-7-7--7-7--|
A:-5-5--5-5-5--5--5-5-5--7-7-7--5-5--|
E:-3-3--3-3-3--3---------5-5-5-------|


  1, 2, 3, 4 tell the people what you want

   It was an itsy, bitsy, teenie, weenie, yellow polka-dot bikini
e:---------------------------------------------------------------|
B:---------------------------------------7-7-7-7-7-7-7-7-7-7-7-7-|
G:-----------6-6-6-6-6-6-6-6-6-6--6-6-6--7-7-7-7-7-7-7-7-7-7-7-7-|
D:-----------7-7-7-7-7-7-7-7-7-7--7-7-7--7-7-7-7-7-7-7-7-7-7-7-7-|
A:-----------7-7-7-7-7-7-7-7-7-7--7-7-7--5-5-5-5-5-5-5-5-5-5-5-5-|
E:-----------5-5-5-5-5-5-5-5-5-5--5-5-5------------------

Yellow Raven chords – Scorpions V2

 Am Dm
The yellow raven-sipped the air
 Dm E
Of thunder and of-rain ...
 Am Dm
The yellow raven-sipped the air
 Am E
Gentle eyes kissing the-rain ...

 E Dm Am
Where do you-go, fantastic-dreambird?
 Dm Am
Take me away to-somewhere
 F E
Take me away from-here!
 E Dm Am
Where do you-go, fantastic-dreambird?
 Dm Am
Answer to my-yearning
 F E
Take me away from-here!



The firebird began to cry
When the music died away ...
The firebird began to cry
And smoke was slowly drifting by ...

Where do you go, fantastic dreambird?
Take me away to somewhere
Take me away from here!
Where do you go, fantastic dreambird?
Answer to my yearning
Take me away from here ...

SOLO:


E||----------------------------------------||
B||----------------------------------------||
G||----------------------------------------||
D||-5----0-2-3--3-5-3-2--------------------||
A||--5-5----------------0--0-0-3-5--5-7-5-3||
E||3--6------------------------------------||


E||----------------------------------------||
B||----------------------------------------||
G||----------------------------------------||
D||------------------2-3-2-3-2-3-----------||
A||----------------------------------------||
E||5--5-3-1--1-1-1-0-----------------------||

                  (x2)




e||----------------------------------------||
B||----------------------------------------||
G||----------------------------------------||
D||-5----0-2-3--3-5-3-2--------------------||
A||--5-5----------------0--0-0-3-5--5-7-5-3||
E||3--6------------------------------------||


e||----------------------------------------||
B||----------------------------------------||
G||----------------------------------------||
D||------------------2-3-6-7-6-2-----------||
A||----------------------------------------||
E||5--5-3-1--1-1-1-0-----------------------||

                   (x2)

Buy Me Honey chords – Yellow Red Sparks

                              BUY ME HONEY - Yellow, Red Sparks
-----------------------------------------------------------------------------
: sglucs
 sglucs

Based off of the following live recording: https://www.youtube.com/watch?v=LvqTosbW1W8

...de Jello, Red Essparks!

Tuning: Standard
Capo: III

 F#m7  - 022033
 A  - 320033
 Esus4  - xx0233
 B7sus4  - x02033
 B7sus4 * - x02233
 Dadd9  - x32033
 A/G#  - 2x0033

Verse 1:
 Dadd9 B7sus4 Am  (Riff 1)
Whatcha gonna buy me  honey?
 Dadd9 B7sus4 Am  (Riff 1)
Whatcha gonna soften me up with tonight?
 Dadd9 B7sus4 Am  (Riff 1)
Why do you think that Im running?
 Dadd9 B7sus4 Am D  (Riff 2)
Get out quickly get out from your knife!


Chorus:
 G Em 
Theres a high way, its my way
 C G 
Youre taking the lead from my hand
 G Em 
And the cold strength that Ive saved
 C G 
Will call in relief when youre mad


Verse 2:
Whatcha gonna buy me honey?
Whatcha gonna suffer yourself with tonight?
Why do you think that Im running?
Get out quickly get out from your knife (all your knives)

Chorus:
Theres a high way its my way
Youre taking the leap from my hand
And the cold strength that Ive saved
Well call in relief when you’re mad

Bridge:
 Am C 
You sharpen me quickly
 Am D 
You sharpen me well
 Am D 
You saw through me quickly
 Am D  (Riff 2)
You saw through me well

Chorus:
Theres a high way its my way
Im taking the lead from your hand
And the pulled strings that Ive frayed
That calls in relief when youre mad
To call in relief when youre mad


Riff 1:
      Am 
e|-0---0---0------0---------------------------------------------------------|
B|-1---1---1------1---------------------------------------------------------|
G|-2---0---0h2---2----------------------------------------------------------|
D|-2---2---2-------2--------------------------------------------------------|
A|-0---0---2-------2--------------------------------------------------------|
E|-0------------------------------------------------------------------------|

Riff 2:
e|-2-----0-----2-----3------------------------------------------------------|
B|-3-----3-----3-----3------------------------------------------------------|
G|-2-----2-----2-----2------------------------------------------------------|
D|-0-----0-----0-----0------------------------------------------------------|
A|--------------------------------------------------------------------------|
E|--------------------------------------------------------------------------|



*   *   *   *   *   *|||||||||||||||||||||||||||||||||||||||||||||||
  *   *   *   *   *
*   *   *   *   *   *|||||||||||||||||||||||||||||||||||||||||||||||
  *   *   *   *   *
*   *   *   *   *   *|||||||||||||||||||||||||||||||||||||||||||||||
  *   *   *   *   *
*   *   *   *   *   *|||||||||||||||||||||||||||||||||||||||||||||||

||||||||||||||||||||||||||||||||||||||||||||||||||||||||||||||||||||

||||||||||||||||||||||||||||||||||||||||||||||||||||||||||||||||||||

||||||||||||||||||||||||||||||||||||||||||||||||||||||||||||||||||||

Proud American

***********************************
| /   slide up
| \   slide down
|  H    hammer-on
| p   pull-off
| ~   vibrato
| +   harmonic
| x   Mute note
|  B    Bend
| pb  Pre-bend
| br  Bend release
| pbr Pre-bend release
| brb Bend release bend

************************************

Yellow Light Tabs by Of Monsters And Men V2

 -----------------------------------------------------------------------------
                         YELLOW LIGHT - Of Monsters and Men
-----------------------------------------------------------------------------
: PSP-
TxTPereira

Capo on the 2nd fret,
You will use these chords for the whole song>
Fmaj7 Am C Em at the slow intro
Fmaj7 Am7 C Cmaj7 picked slowly (Tabs below)

Fmaj7                        Am           C                           Em
I'm looking for a place to start, but everything feels so different now.

Fmaj7                    Am                C               Em
Just grab a hold of my hand, I will lead you through this wonderland.

Famj7            Am          C                  Em
Water up to my knees , but sharks are swimming in the sea.

Fmaj7                   Am                C         Em
Just follow my yellow light, and ignore all those big warning signs.



Then it goes like this, i have not tabbed exactly as it is, you should do the way 
you can do better, don't really botter trying to imitate exactly like the song.
   Fmaj7              Am             C                  Cmaj7
e|--------------------------------------------------------------------------|
B|---------1---------------1-----------------1----------------0-------------|
G|----2------2----2----2-----2------2----0-----0---0----0--------0-----0----|
D|-3-----3-----3---------2-------2---------2-----2--------2---------2-------|
A|-------------------0-----0-----0-----3-----3--------3-------3--------3----|
E|--------------------------------------------------------------------------|

Somewhere deep in the dark
A howling beast hears us talk.
I dare you to close your eyes
And see all the colors in disguise.
Running into the night,
The earth is shaking and I see a light.
The light is blinding my eyes
As the soft walls eat us alive.

------------------------------------------------------------//

Keyboard little thing>

Right after the first part the keyboard plays that little phrase:
(Not relative to capo)
e|--9----7--------------------------|---------------------------------------|
B|------------7-----10----9-----7---|--5------------------------------------|
G|----------------------------------|-------7----6~-------------------------|
D|----------------------------------|---------------------------------------|
A|----------------------------------|---------------------------------------|
E|----------------------------------|---------------------------------------|

And repeats this through the whole song:
e|------------------------------|-------------------------------------------|
B|--10---10---10---7---10-------|--10---10---10---7---5---------------------|
G|--------------------------7---|-------------------------7-----------------|
D|------------------------------|-------------------------------------------|
A|------------------------------|-------------------------------------------|
E|------------------------------|-------------------------------------------|

Good playing and singing!!

Over The Yellow Line chords – My Own Rain

 My Own Rain - Over The Yellow Line

Official You Tube Page: http://www.youtube.com/user/myownrainofficial
Official Facebook Page: https://www.facebook.com/myownrainofficial

22/11/2013
By: pellic383
pellic383@hotmail.it

Hello!
These are the chords of "Over The Yellow Line" by My Own Rain.
Davide Pelliciari (Band's guitarist) plays it in Tab D, but you can also play this 
song in STANDARD tuning.

Standard Tuning

CAPO on 10th Fret
all chords relative to capo.


Intro:  Am  -  C  -  G  x2


 Am C G 
You'll remember when the snow fell down

 Am C G 
And it doesn't hurt us

 Am C G 
You'll remember the letter written

 Am C G 
And the finished pen.

 Am C G 
You'll remember the screams and cryes

 Am C G 
And that railroad infinity.


Chorus:


 Am F C Am7 
Sitting here, over the yellow line.

 F C Am7 
No limits, just promises.

 Am F C Am7 
The white whisper over our heads

 F C Am7     
And the smoke barely distinguished


 Am  -  C  -  G  x3


 Am C G 
I've painted a sky full of stars

 Am F C Am7 
Where also winters smelled like sea

 Am C G 
And the eyes met

 Am C G 
In dew's whisper


Chorus 2:


 Am F C Am7 
Sitting here, over the yellow line.

 F C Am7 
No limits, no horizons.

 Am F C Am7 
Astride, like a traveller

 F C Am7 
Waiting for his itinerary


Bridge:


 F C Am7 
The train will pass

 F C Am7 
But you won't catch it

 F C Am7 
And the snow starts to fall

 F G 
I'll wait, I hope x6


Chorus:


 Am F C Am7 
Sitting here, over the yellow line.

 F C Am7 
No limits, just promises.

 Am F C Am7 
The white whisper over our heads

 F C Am7 
And the smoke barely distinguished


Repeat Intro


End on  Am

Yellow Moon Tabs by Pearl Jam

 -------------------------------------------------------------------------------
                             Yellow Moon - Pearl Jam
-------------------------------------------------------------------------------
: boyaguitarra
 boyaguitarra

Tunning: Capo +1

|-2-2--0--0--0-0-0-|-2-2--0--0--0-0-0-||-2-2--0--0--0-0-0-|-2-2--0--0--0-0-0-|-2-2--3--3--3--3-|-0--0--0-0-0-||
|-3-3--2--2--2-2-2-|-3-3--2--2--2-2-2-||-3-3--2--2--2-2-2-|-3-3--2--2--2-2-2-|-3-3--3--3--3--3-|-2--2--2-2-2-||
|-2-2--2--2--2-2-2-|-2-2--2--2--2-2-2-|*-2-2--2--2--2-2-2-|-2-2--2--2--2-2-2-|-2-2--0--0--0--0-|-2--2--2-2-2-*|
|-0-0--2--2--2-2-2-|-0-0--2--2--2-2-2-|*-0-0--2--2--2-2-2-|-0-0--2--2--2-2-2-|-0-0--0--0--0--0-|-2--2--2-2-2-*|
|------0--0--0-0-0-|------0--0--0-0-0-||------0--0--0-0-0-|------0--0--0-0-0-|------2--2--2--2-|-0--0--0-0-0-||
|------------------|------------------||------------------|------------------|------3--3--3--3-|-------------||

|-0--0--2--2-|-0--0--0-0-0-|-3--3--3-|-0--0--2--2-|-0-----------||-2-2--0--0--0-0-0-|-2-2--0--0--0-0-0-||
|-1--1--3--3-|-2--2--2-2-2-|-3--3--3-|-1--1--3--3-|-2-----------||-3-3--2--2--2-2-2-|-3-3--2--2--2-2-2-||
|-0--0--2--2-|-2--2--2-2-2-|-0--0--0-|-0--0--2--2-|-2-----------|*-2-2--2--2--2-2-2-|-2-2--2--2--2-2-2-*|
|-2--2--0--0-|-2--2--2-2-2-|-0--0--0-|-2--2--0--0-|-2-----------|*-0-0--2--2--2-2-2-|-0-0--2--2--2-2-2-*|
|-3--3-------|-0--0--0-0-0-|-2--2--2-|-3--3-------|-0-----------||------0--0--0-0-0-|------0--0--0-0-0-||
|------------|-------------|-3--3--3-|------------|-------------||------------------|------------------||

|-2-2--0--0--0-0-0-|-2-2--0--0--0-0-0-|-2-2--3--3--3--3-|-0--0--0-0-0-|-2-2--3--3--3--3-|-0--0--0-0-0-|
|-3-3--2--2--2-2-2-|-3-3--2--2--2-2-2-|-3-3--3--3--3--3-|-2--2--2-2-2-|-3-3--3--3--3--3-|-2--2--2-2-2-|
|-2-2--2--2--2-2-2-|-2-2--2--2--2-2-2-|-2-2--0--0--0--0-|-2--2--2-2-2-|-2-2--0--0--0--0-|-2--2--2-2-2-|
|-0-0--2--2--2-2-2-|-0-0--2--2--2-2-2-|-0-0--0--0--0--0-|-2--2--2-2-2-|-0-0--0--0--0--0-|-2--2--2-2-2-|
|------0--0--0-0-0-|------0--0--0-0-0-|------2--2--2--2-|-0--0--0-0-0-|------2--2--2--2-|-0--0--0-0-0-|
|------------------|------------------|------3--3--3--3-|-------------|------3--3--3--3-|-------------|

|-0--0--2--2-|-0--0--0-0-0-|-3--3--3-|-0--0--2----------|
|-1--1--3--3-|-2--2--2-2-2-|-3--3--3-|-1--1--3----------|
|-0--0--2--2-|-2--2--2-2-2-|-0--0--0-|-0--0--2----------|
|-2--2--0--0-|-2--2--2-2-2-|-0--0--0-|-2--2--0----------|
|-3--3-------|-0--0--0-0-0-|-2--2--2-|-3--3-------------|
|------------|-------------|-3--3--3-|------------------|
                                                 
||-0--2--3--5--|-0--2--3--5--0--0--0-0-0-||-3--3--3-3-|-0--0--0-0-0-|-3--3--3-3-|-0--0-0-0-0-|
||-0--2--3--5--|-0--2--3--5--2--2--2-2-2-||-3--3--3-3-|-2--2--2-2-2-|-3--3--3-3-|-2--2-2-2-2-|
|*-0--2--4--6--|-0--2--4--6--2--2--2-2-2-*|-0--0--0-0-|-2--2--2-2-2-|-0--0--0-0-|-2--2-2-2-2-|
|*-2--4--5--7--|-2--4--5--7--2--2--2-2-2-*|-0--0--0-0-|-2--2--2-2-2-|-0--0--0-0-|-2--2-2-2-2-|
||-2--4--5--7--|-2--4--5--7--0--0--0-0-0-||-2--2--2-2-|-0--0--0-0-0-|-2--2--2-2-|-0--0-0-0-0-|
||-0--2--3--5--|-0--2--3--5--------------||-3--3--3-3-|-------------|-3--3--3-3-|------------|

|-0--0--2--2-|-0--0--0-0-0-|-3--3--3-|-0--0--2--2-|-0--0--0-0-0-||-2-2--0--0--0-0-0-|-2-2--0--0--0-0-0-||
|-1--1--3--3-|-2--2--2-2-2-|-3--3--3-|-1--1--3--3-|-2--2--2-2-2-||-3-3--2--2--2-2-2-|-3-3--2--2--2-2-2-||
|-0--0--2--2-|-2--2--2-2-2-|-0--0--0-|-0--0--2--2-|-2--2--2-2-2-|*-2-2--2--2--2-2-2-|-2-2--2--2--2-2-2-*|
|-2--2--0--0-|-2--2--2-2-2-|-0--0--0-|-2--2--0--0-|-2--2--2-2-2-|*-0-0--2--2--2-2-2-|-0-0--2--2--2-2-2-*|
|-3--3-------|-0--0--0-0-0-|-2--2--2-|-3--3-------|-0--0--0-0-0-||------0--0--0-0-0-|------0--0--0-0-0-||
|------------|-------------|-3--3--3-|------------|-------------||------------------|------------------||

|-0--0--2--2-|-0--0--0-0-0-|-3--3--3-|-0--0--2--2-|-0--0--0-0-0-|-3--3--3-|-0--0--2-----|
|-1--1--3--3-|-2--2--2-